  0
SECTION
  2
HEADER
  9
$ACADVER
  1
AC1009
  9
$INSBASE
 10
0.0
 20
0.0
 30
0.0
  9
$EXTMIN
 10
0.0
 20
0.0
 30
0.0
  9
$EXTMAX
 10
210.0
 20
297.0
 30
0.0
  9
$LIMMIN
 10
0.0
 20
0.0
  9
$LIMMAX
 10
410.0
 20
287.0
  9
$ORTHOMODE
 70
     1
  9
$REGENMODE
 70
     1
  9
$FILLMODE
 70
     1
  9
$QTEXTMODE
 70
     0
  9
$MIRRTEXT
 70
     1
  9
$DRAGMODE
 70
     2
  9
$LTSCALE
 40
5.0
  9
$OSMODE
 70
    37
  9
$ATTMODE
 70
     1
  9
$TEXTSIZE
 40
3.5
  9
$TRACEWID
 40
26.0
  9
$TEXTSTYLE
  7
STANDARD
  9
$CLAYER
  8
05
  9
$CELTYPE
  6
BYLAYER
  9
$CECOLOR
 62
   256
  9
$DIMSCALE
 40
1.0
  9
$DIMASZ
 40
3.5
  9
$DIMEXO
 40
1.0
  9
$DIMDLI
 40
8.0
  9
$DIMRND
 40
0.0
  9
$DIMDLE
 40
0.0
  9
$DIMEXE
 40
1.1999999999999991
  9
$DIMTP
 40
0.0
  9
$DIMTM
 40
0.0
  9
$DIMTXT
 40
3.5
  9
$DIMCEN
 40
0.0
  9
$DIMTSZ
 40
0.0
  9
$DIMTOL
 70
     0
  9
$DIMLIM
 70
     0
  9
$DIMTIH
 70
     0
  9
$DIMTOH
 70
     0
  9
$DIMSE1
 70
     0
  9
$DIMSE2
 70
     0
  9
$DIMTAD
 70
     1
  9
$DIMZIN
 70
     0
  9
$DIMBLK
  1

  9
$DIMASO
 70
     0
  9
$DIMSHO
 70
     0
  9
$DIMPOST
  1

  9
$DIMAPOST
  1
"
  9
$DIMALT
 70
     0
  9
$DIMALTD
 70
     3
  9
$DIMALTF
 40
0.039370079
  9
$DIMLFAC
 40
1.0
  9
$DIMTOFL
 70
     0
  9
$DIMTVP
 40
0.0
  9
$DIMTIX
 70
     1
  9
$DIMSOXD
 70
     0
  9
$DIMSAH
 70
     0
  9
$DIMBLK1
  1

  9
$DIMBLK2
  1

  9
$DIMSTYLE
  2
NEUTRIK
  9
$DIMCLRD
 70
     4
  9
$DIMCLRE
 70
     4
  9
$DIMCLRT
 70
     3
  9
$DIMTFAC
 40
1.0
  9
$DIMGAP
 40
0.15
  9
$LUNITS
 70
     2
  9
$LUPREC
 70
     2
  9
$SKETCHINC
 40
0.3878978521428445
  9
$FILLETRAD
 40
0.0
  9
$AUNITS
 70
     0
  9
$AUPREC
 70
     2
  9
$MENU
  1
acad
  9
$ELEVATION
 40
0.0
  9
$PELEVATION
 40
0.0
  9
$THICKNESS
 40
0.0
  9
$LIMCHECK
 70
     0
  9
$BLIPMODE
 70
     0
  9
$CHAMFERA
 40
0.0
  9
$CHAMFERB
 40
0.0
  9
$SKPOLY
 70
     0
  9
$TDCREATE
 40
2450555.5605890048
  9
$TDUPDATE
 40
2454285.3990782411
  9
$TDINDWG
 40
1.1942781365999999
  9
$TDUSRTIMER
 40
1.1942781365999999
  9
$USRTIMER
 70
     1
  9
$ANGBASE
 50
0.0
  9
$ANGDIR
 70
     0
  9
$PDMODE
 70
     0
  9
$PDSIZE
 40
0.0
  9
$PLINEWID
 40
0.0
  9
$COORDS
 70
     1
  9
$SPLFRAME
 70
     0
  9
$SPLINETYPE
 70
     6
  9
$SPLINESEGS
 70
     8
  9
$ATTDIA
 70
     0
  9
$ATTREQ
 70
     1
  9
$HANDLING
 70
     1
  9
$HANDSEED
  5
CD819
  9
$SURFTAB1
 70
     6
  9
$SURFTAB2
 70
     6
  9
$SURFTYPE
 70
     6
  9
$SURFU
 70
     6
  9
$SURFV
 70
     6
  9
$UCSNAME
  2

  9
$UCSORG
 10
0.0
 20
0.0
 30
0.0
  9
$UCSXDIR
 10
1.0
 20
0.0
 30
0.0
  9
$UCSYDIR
 10
0.0
 20
1.0
 30
0.0
  9
$PUCSNAME
  2

  9
$PUCSORG
 10
0.0
 20
0.0
 30
0.0
  9
$PUCSXDIR
 10
1.0
 20
0.0
 30
0.0
  9
$PUCSYDIR
 10
0.0
 20
1.0
 30
0.0
  9
$USERI1
 70
     0
  9
$USERI2
 70
     0
  9
$USERI3
 70
     0
  9
$USERI4
 70
     0
  9
$USERI5
 70
     0
  9
$USERR1
 40
0.0
  9
$USERR2
 40
0.0
  9
$USERR3
 40
0.0
  9
$USERR4
 40
0.0
  9
$USERR5
 40
0.0
  9
$WORLDVIEW
 70
     1
  9
$SHADEDGE
 70
     3
  9
$SHADEDIF
 70
    70
  9
$TILEMODE
 70
     1
  9
$MAXACTVP
 70
    16
  9
$PLIMCHECK
 70
     0
  9
$PEXTMIN
 10
1.0000000000000000E+020
 20
1.0000000000000000E+020
 30
1.0000000000000000E+020
  9
$PEXTMAX
 10
-1.0000000000000000E+020
 20
-1.0000000000000000E+020
 30
-1.0000000000000000E+020
  9
$PLIMMIN
 10
0.0
 20
0.0
  9
$PLIMMAX
 10
12.0
 20
9.0
  9
$UNITMODE
 70
     0
  9
$VISRETAIN
 70
     0
  9
$PLINEGEN
 70
     0
  9
$PSLTSCALE
 70
     0
  0
ENDSEC
  0
SECTION
  2
TABLES
  0
TABLE
  2
VPORT
 70
     2
  0
VPORT
  2
*ACTIVE
 70
     0
 10
0.0
 20
0.0
 11
1.0
 21
1.0
 12
142.08440578186651
 22
148.50000069150701
 13
0.0
 23
0.0
 14
1.0
 24
1.0
 15
2.0
 25
2.0
 16
0.0
 26
0.0
 36
1.0
 17
0.0
 27
0.0
 37
0.0
 40
298.98524890383629
 41
1.351184346035015
 42
50.0
 43
0.0
 44
0.0
 50
0.0
 51
0.0
 71
     0
 72
   500
 73
     1
 74
     0
 75
     0
 76
     0
 77
     0
 78
     2
  0
ENDTAB
  0
TABLE
  2
LTYPE
 70
     5
  0
LTYPE
  2
AUSGEZOGEN
 70
     0
  3
Ausgezogene Linie
 72
    65
 73
     0
 40
0.0
  0
LTYPE
  2
CENTER
 70
     0
  3
____ _ ____ _ ____ _ ____ _ ____ _ ____ _ ____
 72
    65
 73
     4
 40
2.0
 49
1.25
 49
-0.25
 49
0.25
 49
-0.25
  0
LTYPE
  2
CONTINUOUS
 70
     0
  3
Solid line
 72
    65
 73
     0
 40
0.0
  0
LTYPE
  2
HIDDEN
 70
     0
  3
_ _ _ _ _ _ _ _ _ _ _ _ _ _ _ _ _ _ _ _ _ _ _
 72
    65
 73
     2
 40
0.375
 49
0.25
 49
-0.125
  0
LTYPE
  2
PUNKT
 70
     0
  3
. . . . . . . . . . . . . . . . . . . . . . . .
 72
    65
 73
     2
 40
0.25
 49
0.0
 49
-0.25
  0
ENDTAB
  0
TABLE
  2
LAYER
 70
    17
  0
LAYER
  2
0
 70
     0
 62
     7
  6
AUSGEZOGEN
  0
LAYER
  2
05
 70
     0
 62
     2
  6
AUSGEZOGEN
  0
LAYER
  2
035
 70
     0
 62
     3
  6
AUSGEZOGEN
  0
LAYER
  2
025
 70
     0
 62
     4
  6
AUSGEZOGEN
  0
LAYER
  2
ASHADE
 70
     0
 62
     7
  6
AUSGEZOGEN
  0
LAYER
  2
MITTE
 70
     0
 62
     4
  6
CENTER
  0
LAYER
  2
BEM1
 70
     0
 62
     4
  6
AUSGEZOGEN
  0
LAYER
  2
RAHMEN
 70
     0
 62
     2
  6
AUSGEZOGEN
  0
LAYER
  2
07
 70
     0
 62
     1
  6
AUSGEZOGEN
  0
LAYER
  2
VERDECKT
 70
     0
 62
     4
  6
HIDDEN
  0
LAYER
  2
SCHRAFFIERT
 70
     0
 62
     4
  6
AUSGEZOGEN
  0
LAYER
  2
HILI
 70
     0
 62
     7
  6
AUSGEZOGEN
  0
LAYER
  2
TOL
 70
     0
 62
     4
  6
AUSGEZOGEN
  0
LAYER
  2
BEM2
 70
     0
 62
     6
  6
AUSGEZOGEN
  0
LAYER
  2
SCHRIFTKOPF
 70
     0
 62
     2
  6
AUSGEZOGEN
  0
LAYER
  2
PUNKT
 70
     0
 62
     4
  6
PUNKT
  0
LAYER
  2
010
 70
     0
 62
     5
  6
AUSGEZOGEN
  0
ENDTAB
  0
TABLE
  2
STYLE
 70
     4
  0
STYLE
  2
STANDARD
 70
     0
 40
0.0
 41
0.7
 50
15.0
 71
     0
 42
3.5
  3
txt
  4

  0
STYLE
  2
HELV
 70
     0
 40
0.0
 41
0.8
 50
10.0
 71
     0
 42
2.0
  3
HELV.SHX
  4

  0
STYLE
  2
SCRIPTS
 70
     0
 40
0.0
 41
1.0
 50
0.0
 71
     0
 42
5.0
  3
scripts
  4

  0
STYLE
  2
ASHADE
 70
     0
 40
0.2
 41
1.0
 50
0.0
 71
     0
 42
3.5
  3
simplex
  4

  0
ENDTAB
  0
TABLE
  2
VIEW
 70
     1
  0
VIEW
  2
OLE1
 70
     0
 40
362.04337985430692
 10
262.08045297997688
 20
181.0216899271534
 41
524.16090595995388
 11
0.0
 21
0.0
 31
1.0
 12
0.0
 22
0.0
 32
0.0
 42
50.0
 43
0.0
 44
0.0
 50
0.0
 71
     0
  0
ENDTAB
  0
TABLE
  2
UCS
 70
     0
  0
ENDTAB
  0
TABLE
  2
APPID
 70
     3
  0
APPID
  2
ACAD
 70
     0
  0
APPID
  2
AVE_RENDER
 70
     0
  0
APPID
  2
ACAD_EXEMPT_FROM_CAD_STANDARDS
 70
     0
  0
ENDTAB
  0
TABLE
  2
DIMSTYLE
 70
     2
  0
DIMSTYLE
  2
STANDARD
 70
     0
  3

  4
"
  5

  6

  7

 40
1.0
 41
1.7
 42
0.5
 43
8.0
 44
0.4
 45
0.0
 46
0.0
 47
0.0
 48
0.0
140
1.7
141
5.0
142
0.0
143
0.039370079
144
1.0
145
0.0
146
1.0
147
0.15
 71
     0
 72
     0
 73
     0
 74
     0
 75
     0
 76
     0
 77
     1
 78
     0
170
     0
171
     3
172
     0
173
     0
174
     0
175
     0
176
   256
177
   256
178
     3
  0
DIMSTYLE
  2
NEUTRIK
 70
     0
  3

  4
"
  5

  6

  7

 40
1.0
 41
3.5
 42
1.0
 43
8.0
 44
1.1999999999999991
 45
0.0
 46
0.0
 47
0.0
 48
0.0
140
3.5
141
0.0
142
0.0
143
0.039370079
144
1.0
145
0.0
146
1.0
147
0.15
 71
     0
 72
     0
 73
     0
 74
     0
 75
     0
 76
     0
 77
     1
 78
     0
170
     0
171
     3
172
     0
173
     0
174
     1
175
     0
176
     4
177
     4
178
     3
  0
ENDTAB
  0
ENDSEC
  0
SECTION
  2
BLOCKS
  0
BLOCK
  8
0
  2
$MODEL_SPACE
 70
     0
 10
0.0
 20
0.0
 30
0.0
  3
$MODEL_SPACE
  1

  0
ENDBLK
  5
C6467
  8
0
  0
BLOCK
 67
     1
  8
0
  2
$PAPER_SPACE
 70
     0
 10
0.0
 20
0.0
 30
0.0
  3
$PAPER_SPACE
  1

  0
ENDBLK
  5
C6465
 67
     1
  8
0
  0
BLOCK
  8
0
  2
AVE_RENDER
 70
     0
 10
0.0
 20
0.0
 30
0.0
  3
AVE_RENDER
  1
AVE_RENDER
  0
ENDBLK
  5
2F
  8
0
  0
BLOCK
  8
0
  2
NT_1
 70
     0
 10
0.0
 20
0.0
 30
0.0
  3
NT_1
  1

  0
ENDBLK
  5
35
  8
0
  0
BLOCK
  8
0
  2
ACAD
 70
     0
 10
0.0
 20
0.0
 30
0.0
  3
ACAD
  1

  0
INSERT
  5
CD066
  8
ASHADE
 62
     1
  2
AVE_RENDER
 10
0.0
 20
0.0
 30
0.0
1001
AVE_RENDER
1002
{
1070
     2
1000
Pref
1070
    40
1070
    20
1070
     1
1070
     0
1000

1070
    10
1070
     0
1070
    30
1040
1.0
1070
     1
1040
0.3
1040
0.7
1040
0.0
1040
10.0
1010
-1.0
1020
-1.0
1030
-1.0
1040
0.3
1070
    49
1002
}
  0
INSERT
  5
CD067
  8
ASHADE
 62
     3
  2
AVE_RENDER
 10
0.0
 20
0.0
 30
0.0
1001
AVE_RENDER
1002
{
1070
     0
1000
Full Opt
1070
     0
1070
     1
1070
     1
1070
     1
1070
     0
1070
     0
1070
     0
1070
     1
1070
     1
1040
0.0001
1040
0.0001
1002
}
  0
INSERT
  5
CD068
  8
ASHADE
 62
     4
  2
AVE_RENDER
 10
0.0
 20
0.0
 30
0.0
1001
AVE_RENDER
1002
{
1070
     0
1000
Quick Opt
1070
     0
1070
     1
1070
     1
1070
     1
1070
     1
1070
     0
1070
     1
1002
}
  0
INSERT
  5
CD069
  8
05
  2
NT_1
 10
98.709341459344387
 20
147.8406513925157
 30
0.0
 41
32.616999881868431
 42
-6.863009327815802
 43
32.616999881868431
  0
ENDBLK
  5
13B61
  8
0
  0
BLOCK
  8
0
  2
ZKOPFC
 70
     2
 10
0.0
 20
0.0
 30
0.0
  3
ZKOPFC
  1

  0
ATTDEF
  5
C6BAC
  8
0
 62
     4
 10
-13.321428571428569
 20
37.0
 30
0.0
 40
2.5
  1
Dobler
  7
SCRIPTS
 72
     1
 11
-8.5
 21
37.0
 31
0.0
  3
Name des Konstrukteurs ?
  2
NAME
 70
     0
  0
POLYLINE
  5
C6BAD
  8
0
 62
     2
 66
     1
 10
0.0
 20
0.0
 30
0.0
  0
VERTEX
  5
CD1F0
  8
0
 62
     2
 10
-51.0
 20
0.0
 30
0.0
  0
VERTEX
  5
CD1F1
  8
0
 62
     2
 10
-51.0
 20
46.0
 30
0.0
  0
SEQEND
  5
CD1F2
  8
0
 62
     2
  0
POLYLINE
  5
C6BAE
  8
0
 62
     2
 66
     1
 10
0.0
 20
0.0
 30
0.0
  0
VERTEX
  5
CD1F3
  8
0
 62
     2
 10
-17.0
 20
9.0
 30
0.0
  0
VERTEX
  5
CD1F4
  8
0
 62
     2
 10
-17.0
 20
46.0
 30
0.0
  0
SEQEND
  5
CD1F5
  8
0
 62
     2
  0
POLYLINE
  5
C6BAF
  8
0
 62
     2
 66
     1
 10
0.0
 20
0.0
 30
0.0
  0
VERTEX
  5
CD1F6
  8
0
 62
     2
 10
-32.0
 20
26.0
 30
0.0
  0
VERTEX
  5
CD1F7
  8
0
 62
     2
 10
-32.0
 20
46.0
 30
0.0
  0
SEQEND
  5
CD1F8
  8
0
 62
     2
  0
POLYLINE
  5
C6BB0
  8
0
 62
     2
 66
     1
 10
0.0
 20
0.0
 30
0.0
  0
VERTEX
  5
CD1F9
  8
0
 62
     2
 10
-133.0
 20
41.0
 30
0.0
  0
VERTEX
  5
CD1FA
  8
0
 62
     2
 10
-92.0
 20
41.0
 30
0.0
  0
SEQEND
  5
CD1FB
  8
0
 62
     2
  0
POLYLINE
  5
C6BB1
  8
0
 62
     2
 66
     1
 10
0.0
 20
0.0
 30
0.0
  0
VERTEX
  5
CD1FC
  8
0
 62
     2
 10
-145.0
 20
0.0
 30
0.0
  0
VERTEX
  5
CD1FD
  8
0
 62
     2
 10
-145.0
 20
46.0
 30
0.0
  0
SEQEND
  5
CD1FE
  8
0
 62
     2
  0
POLYLINE
  5
C6BB2
  8
0
 62
     2
 66
     1
 10
0.0
 20
0.0
 30
0.0
  0
VERTEX
  5
CD1FF
  8
0
 62
     2
 10
-158.0
 20
0.0
 30
0.0
  0
VERTEX
  5
CD200
  8
0
 62
     2
 10
-158.0
 20
46.0
 30
0.0
  0
SEQEND
  5
CD201
  8
0
 62
     2
  0
LINE
  5
C6BB3
  8
0
 62
     2
 10
-200.0
 20
6.0
 30
0.0
 11
-133.0
 21
6.0
 31
0.0
  0
POLYLINE
  5
C6BB4
  8
0
 62
     4
 66
     1
 10
0.0
 20
0.0
 30
0.0
  0
VERTEX
  5
CD202
  8
0
 62
     4
 10
-200.0
 20
11.0
 30
0.0
  0
VERTEX
  5
CD203
  8
0
 62
     4
 10
-133.0
 20
11.0
 30
0.0
  0
SEQEND
  5
CD204
  8
0
 62
     4
  0
POLYLINE
  5
C6BB5
  8
0
 62
     4
 66
     1
 10
0.0
 20
0.0
 30
0.0
  0
VERTEX
  5
CD205
  8
0
 62
     4
 10
-200.0
 20
16.0
 30
0.0
  0
VERTEX
  5
CD206
  8
0
 62
     4
 10
-133.0
 20
16.0
 30
0.0
  0
SEQEND
  5
CD207
  8
0
 62
     4
  0
POLYLINE
  5
C6BB6
  8
0
 62
     4
 66
     1
 10
0.0
 20
0.0
 30
0.0
  0
VERTEX
  5
CD208
  8
0
 62
     4
 10
-200.0
 20
21.0
 30
0.0
  0
VERTEX
  5
CD209
  8
0
 62
     4
 10
-133.0
 20
21.0
 30
0.0
  0
SEQEND
  5
CD20A
  8
0
 62
     4
  0
POLYLINE
  5
C6BB7
  8
0
 62
     4
 66
     1
 10
0.0
 20
0.0
 30
0.0
  0
VERTEX
  5
CD20B
  8
0
 62
     4
 10
-200.0
 20
26.0
 30
0.0
  0
VERTEX
  5
CD20C
  8
0
 62
     4
 10
-133.0
 20
26.0
 30
0.0
  0
SEQEND
  5
CD20D
  8
0
 62
     4
  0
POLYLINE
  5
C6BB8
  8
0
 62
     4
 66
     1
 10
0.0
 20
0.0
 30
0.0
  0
VERTEX
  5
CD20E
  8
0
 62
     4
 10
-200.0
 20
31.0
 30
0.0
  0
VERTEX
  5
CD20F
  8
0
 62
     4
 10
-133.0
 20
31.0
 30
0.0
  0
SEQEND
  5
CD210
  8
0
 62
     4
  0
POLYLINE
  5
C6BB9
  8
0
 62
     4
 66
     1
 10
0.0
 20
0.0
 30
0.0
  0
VERTEX
  5
CD211
  8
0
 62
     4
 10
-200.0
 20
36.0
 30
0.0
  0
VERTEX
  5
CD212
  8
0
 62
     4
 10
-133.0
 20
36.0
 30
0.0
  0
SEQEND
  5
CD213
  8
0
 62
     4
  0
POLYLINE
  5
C6BBA
  8
0
 62
     4
 66
     1
 10
0.0
 20
0.0
 30
0.0
  0
VERTEX
  5
CD214
  8
0
 62
     4
 10
-200.0
 20
41.0
 30
0.0
  0
VERTEX
  5
CD215
  8
0
 62
     4
 10
-133.0
 20
41.0
 30
0.0
  0
SEQEND
  5
CD216
  8
0
 62
     4
  0
TEXT
  5
C6BBB
  8
0
 62
     4
 10
-50.0
 20
6.0
 30
0.0
 40
1.5
  1
Zeichn. Nr.
 51
15.0
  0
TEXT
  5
C6BBC
  8
0
 62
     4
 10
-50.0
 20
23.0
 30
0.0
 40
1.5
  1
Ersetzt durch:         Blatt
 51
15.0
  0
TEXT
  5
C6BBD
  8
0
 62
     4
 10
-50.0
 20
38.0
 30
0.0
 40
1.5
  1
Gezeichnet
 51
15.0
  0
TEXT
  5
C6BBE
  8
0
 62
     4
 10
-50.0
 20
27.0
 30
0.0
 40
1.5
  1
Gesehen
 51
15.0
  0
TEXT
  5
C6BBF
  8
0
 62
     4
 10
-31.0
 20
42.0
 30
0.0
 40
1.5
  1
Datum     Name
 51
15.0
  0
TEXT
  5
C6BC0
  8
0
 62
     4
 10
-91.0
 20
42.0
 30
0.0
 40
1.5
  1
Werkstoff:      Massstab:
 51
15.0
  0
TEXT
  5
C6BC1
  8
0
 62
     4
 10
-132.0
 20
23.0
 30
0.0
 40
1.5
  1
Benennung:
 51
15.0
  0
LINE
  5
C6BC2
  8
0
 62
     2
 10
-133.0
 20
33.0
 30
0.0
 11
-92.0
 21
33.0
 31
0.0
  0
TEXT
  5
C6BC3
  8
0
 62
     4
 10
-132.0
 20
39.0
 30
0.0
 40
1.5
  1
*)Lieferant darf ohne 
 51
15.0
  0
TEXT
  5
C6BC4
  8
0
 62
     4
 10
-132.0
 20
36.5
 30
0.0
 40
1.5
  1
 Ruecksprache nicht 
 51
15.0
  0
TEXT
  5
C6BC5
  8
0
 62
     4
 10
-132.0
 20
34.0
 30
0.0
 40
1.5
  1
 geaendert werden
 51
15.0
  0
TEXT
  5
C6BC6
  8
0
 62
     4
 10
-132.0
 20
30.0
 30
0.0
 40
1.5
  1
Zeichnung urheberrechtlich
 51
15.0
  0
TEXT
  5
C6BC7
  8
0
 62
     4
 10
-132.0
 20
27.5
 30
0.0
 40
1.5
  1
geschuetzt (DIN 34) (C)
 51
15.0
  0
TEXT
  5
C6BC8
  8
0
 62
     4
 10
-50.0
 20
32.0
 30
0.0
 40
1.5
  1
Geprueft
 51
15.0
  0
TEXT
  5
C6BC9
  8
0
 62
     4
 10
-50.0
 20
15.0
 30
0.0
 40
1.5
  1
Ersatz fuer:           von  Blatt
 51
15.0
  0
TEXT
  5
C6BCA
  8
0
 62
     4
 10
-197.0
 20
1.0
 30
0.0
 40
1.5
  1
Ind.  Aenderung             Datum    Name
 51
15.0
  0
ATTDEF
  5
C6BCB
  8
0
 62
     4
 10
-28.875
 20
37.0
 30
0.0
 40
2.5
  1
01.10.91
 41
0.7
 51
15.0
 72
     1
 11
-24.5
 21
37.0
 31
0.0
  3
Datum der Zeichnung ?
  2
DATE
 70
     0
  0
ATTDEF
  5
C6BCC
  8
0
 62
     4
 10
-80.5
 20
36.0
 30
0.0
 40
2.5
  1

 41
0.7
 51
15.0
 72
     1
 11
-80.5
 21
36.0
 31
0.0
  3
Aus welchem Werkstoff ?
  2
WERKSTOFF
 70
     0
  0
ATTDEF
  5
C6BCD
  8
0
 62
     2
 10
-92.0
 20
12.5
 30
0.0
 40
5.0
  1

 41
0.7
 51
15.0
 72
     1
 11
-92.0
 21
12.5
 31
0.0
  3
Zeichnungsname ?
  2
BENENNUNG
 70
     0
  0
ATTDEF
  5
C6BCE
  8
0
 62
     3
 10
-90.265456601878626
 20
21.082191450526931
 30
0.0
 40
3.5
  1
()
 41
0.7
 51
15.0
 72
     1
 11
-89.040456601878617
 21
21.082191450526931
 31
0.0
  3
Zu welchem Produkt ?
  2
TEIL
 70
     0
  0
ATTDEF
  5
C6BCF
  8
0
 62
     3
 10
-20.550219082576412
 20
1.9765410165377939
 30
0.0
 40
3.5
  1

 41
0.7
 51
15.0
 72
     1
 11
-20.550219082576412
 21
1.9765410165377939
 31
0.0
  3
Zeichnungsnummer ?
  2
NUMMER
 70
     0
  0
ATTDEF
  5
C6BD0
  8
0
 62
     2
 10
-63.482671637476102
 20
34.656056232934532
 30
0.0
 40
5.0
  1
5:1
 41
0.7
 51
15.0
 72
     1
 11
-60.566004970809438
 21
34.656056232934532
 31
0.0
  3
Hauptmassstab:
  2
MASS
 70
     0
  0
ATTDEF
  5
C6BD1
  8
0
 62
     3
 10
-60.480700945980033
 20
28.210450539175302
 30
0.0
 40
3.5
  1

 41
0.7
 51
15.0
 72
     1
 11
-60.480700945980033
 21
28.210450539175302
 31
0.0
  3
Nebenmassstab:
  2
MASS2
 70
     0
  0
ATTDEF
  5
C6BD2
  8
0
 62
     4
 10
-81.0
 20
29.0
 30
0.0
 40
2.5
  1

 41
0.7
 51
15.0
 72
     1
 11
-81.0
 21
29.0
 31
0.0
  3
Werkstoffzusatz:
  2
TEIL
 70
     0
  0
ATTDEF
  5
C6BD3
  8
0
 62
     3
 10
-107.7114519405618
 20
59.004318747429437
 30
0.0
 40
3.5
  1
Freimasstoleranzen %%p0.1
 41
0.7
 51
15.0
  3
Freimasstoleranzen:
  2
TOL
 70
     0
  0
ATTDEF
  5
C6BD4
  8
0
 62
     3
 10
-107.7114519405618
 20
54.004318747429437
 30
0.0
 40
3.5
  1
nicht bemasste Radien R=0.2
 41
0.7
 51
15.0
  3
Nicht bemasste Radien:
  2
RADIEN
 70
     0
  0
ATTDEF
  5
C6BD5
  8
0
 62
     3
 10
-107.7114519405618
 20
49.004318747429437
 30
0.0
 40
3.5
  1
nicht bemasste Facetten 0.5 x 45%%D
 41
0.7
 51
15.0
  3
nicht bemasste Facetten:
  2
FACETTE
 70
     0
  0
POLYLINE
  5
C6BD6
  8
0
 62
     2
 66
     1
 10
0.0
 20
0.0
 30
0.0
  0
VERTEX
  5
CD217
  8
0
 62
     2
 10
-191.0
 20
0.0
 30
0.0
  0
VERTEX
  5
CD218
  8
0
 62
     2
 10
-191.0
 20
46.0
 30
0.0
  0
SEQEND
  5
CD219
  8
0
 62
     2
  0
POLYLINE
  5
C6BD7
  8
0
 62
     2
 66
     1
 10
0.0
 20
0.0
 30
0.0
  0
VERTEX
  5
CD21A
  8
0
 62
     2
 10
-133.0
 20
0.0
 30
0.0
  0
VERTEX
  5
CD21B
  8
0
 62
     2
 10
-133.0
 20
46.0
 30
0.0
  0
SEQEND
  5
CD21C
  8
0
 62
     2
  0
POLYLINE
  5
C6BD8
  8
0
 62
     2
 66
     1
 10
0.0
 20
0.0
 30
0.0
  0
VERTEX
  5
CD21D
  8
0
 62
     2
 10
-92.0
 20
26.0
 30
0.0
  0
VERTEX
  5
CD21E
  8
0
 62
     2
 10
-92.0
 20
46.0
 30
0.0
  0
SEQEND
  5
CD21F
  8
0
 62
     2
  0
POLYLINE
  5
C6BD9
  8
0
 62
     2
 66
     1
 10
0.0
 20
0.0
 30
0.0
  0
VERTEX
  5
CD220
  8
0
 62
     2
 10
-69.0
 20
26.0
 30
0.0
  0
VERTEX
  5
CD221
  8
0
 62
     2
 10
-69.0
 20
46.0
 30
0.0
  0
SEQEND
  5
CD222
  8
0
 62
     2
  0
ATTDEF
  5
C6BDA
  8
0
 62
     4
 10
-197.1862672583826
 20
7.0
 30
0.0
 40
2.5
  1

 41
0.7
 51
15.0
  3
Index1:
  2
INDEX1
 70
     0
  0
ATTDEF
  5
C6BDB
  8
0
 62
     4
 10
-190.34874260355031
 20
7.0
 30
0.0
 40
2.5
  1

 41
0.7
 51
15.0
  3
Aenderung1:
  2
A1
 70
     0
  0
ATTDEF
  5
C6BDC
  8
0
 62
     4
 10
-157.34874260355031
 20
7.0
 30
0.0
 40
2.5
  1

 41
0.7
 51
15.0
  3
Datum1:
  2
DATUM1
 70
     0
  0
ATTDEF
  5
C6BDD
  8
0
 62
     4
 10
-144.46499013806701
 20
7.0
 30
0.0
 40
2.5
  1

 41
0.7
 51
15.0
  3
Name1:
  2
NAME1
 70
     0
  0
ATTDEF
  5
C6BDE
  8
0
 62
     4
 10
-197.1862672583826
 20
12.0
 30
0.0
 40
2.5
  1

 41
0.7
 51
15.0
  3
Index2:
  2
INDEX2
 70
     0
  0
ATTDEF
  5
C6BDF
  8
0
 62
     4
 10
-190.34874260355031
 20
12.0
 30
0.0
 40
2.5
  1

 41
0.7
 51
15.0
  3
Aenderung2:
  2
A2
 70
     0
  0
ATTDEF
  5
C6BE0
  8
0
 62
     4
 10
-157.34874260355031
 20
12.0
 30
0.0
 40
2.5
  1

 41
0.7
 51
15.0
  3
Datum2:
  2
DATUM2
 70
     0
  0
ATTDEF
  5
C6BE1
  8
0
 62
     4
 10
-144.46499013806701
 20
12.0
 30
0.0
 40
2.5
  1

 41
0.7
 51
15.0
  3
Name2
  2
NAME2
 70
     0
  0
ATTDEF
  5
C6BE2
  8
0
 62
     4
 10
-197.1862672583826
 20
17.0
 30
0.0
 40
2.5
  1

 41
0.7
 51
15.0
  3
Index3:
  2
INDEX3
 70
     0
  0
ATTDEF
  5
C6BE3
  8
0
 62
     4
 10
-190.34874260355031
 20
17.0
 30
0.0
 40
2.5
  1

 41
0.7
 51
15.0
  3
Aenderung3
  2
A3
 70
     0
  0
ATTDEF
  5
C6BE4
  8
0
 62
     4
 10
-157.34874260355031
 20
17.0
 30
0.0
 40
2.5
  1

 41
0.7
 51
15.0
  3
Datum3:
  2
DATUM3
 70
     0
  0
ATTDEF
  5
C6BE5
  8
0
 62
     4
 10
-144.46499013806701
 20
17.0
 30
0.0
 40
2.5
  1

 41
0.7
 51
15.0
  3
Name3:
  2
NAME3
 70
     0
  0
ATTDEF
  5
C6BE6
  8
0
 62
     4
 10
-197.1862672583826
 20
22.0
 30
0.0
 40
2.5
  1

 41
0.7
 51
15.0
  3
Index4:
  2
INDEX4
 70
     0
  0
ATTDEF
  5
C6BE7
  8
0
 62
     4
 10
-190.34874260355031
 20
22.0
 30
0.0
 40
2.5
  1

 41
0.7
 51
15.0
  3
Aenderung4:
  2
A4
 70
     0
  0
ATTDEF
  5
C6BE8
  8
0
 62
     4
 10
-157.34874260355031
 20
22.0
 30
0.0
 40
2.5
  1

 41
0.7
 51
15.0
  3
Datum4:
  2
DATUM4
 70
     0
  0
ATTDEF
  5
C6BE9
  8
0
 62
     4
 10
-144.46499013806701
 20
22.0
 30
0.0
 40
2.5
  1

 41
0.7
 51
15.0
  3
Name4:
  2
NAME4
 70
     0
  0
ATTDEF
  5
C6BEA
  8
0
 62
     4
 10
-197.1862672583826
 20
27.0
 30
0.0
 40
2.5
  1

 41
0.7
 51
15.0
  3
Index5:
  2
INDEX5
 70
     0
  0
ATTDEF
  5
C6BEB
  8
0
 62
     4
 10
-190.34874260355031
 20
27.0
 30
0.0
 40
2.5
  1

 41
0.7
 51
15.0
  3
Aenderung5:
  2
A5
 70
     0
  0
ATTDEF
  5
C6BEC
  8
0
 62
     4
 10
-157.34874260355031
 20
27.0
 30
0.0
 40
2.5
  1

 41
0.7
 51
15.0
  3
Datum5:
  2
DATUM5
 70
     0
  0
ATTDEF
  5
C6BED
  8
0
 62
     4
 10
-144.46499013806701
 20
27.0
 30
0.0
 40
2.5
  1

 41
0.7
 51
15.0
  3
Name5
  2
NAME5
 70
     0
  0
ATTDEF
  5
C6BEE
  8
0
 62
     4
 10
-197.1862672583826
 20
32.0
 30
0.0
 40
2.5
  1

 41
0.7
 51
15.0
  3
Index6:
  2
INDEX6
 70
     0
  0
ATTDEF
  5
C6BEF
  8
0
 62
     4
 10
-190.34874260355031
 20
32.0
 30
0.0
 40
2.5
  1

 41
0.7
 51
15.0
  3
Aenderung6:
  2
A6
 70
     0
  0
ATTDEF
  5
C6BF0
  8
0
 62
     4
 10
-157.34874260355031
 20
32.0
 30
0.0
 40
2.5
  1

 41
0.7
 51
15.0
  3
Datum6:
  2
DATUM6
 70
     0
  0
ATTDEF
  5
C6BF1
  8
0
 62
     4
 10
-144.46499013806701
 20
32.0
 30
0.0
 40
2.5
  1

 41
0.7
 51
15.0
  3
Name6:
  2
NAME6
 70
     0
  0
ATTDEF
  5
C6BF2
  8
0
 62
     4
 10
-197.1862672583826
 20
37.0
 30
0.0
 40
2.5
  1

 41
0.7
 51
15.0
  3
Index7:
  2
INDEX7
 70
     0
  0
ATTDEF
  5
C6BF3
  8
0
 62
     4
 10
-190.34874260355031
 20
37.0
 30
0.0
 40
2.5
  1

 41
0.7
 51
15.0
  3
Aenderung7:
  2
A7
 70
     0
  0
ATTDEF
  5
C6BF4
  8
0
 62
     4
 10
-157.34874260355031
 20
37.0
 30
0.0
 40
2.5
  1

 41
0.7
 51
15.0
  3
Datum7:
  2
DATUM7
 70
     0
  0
ATTDEF
  5
C6BF5
  8
0
 62
     4
 10
-144.46499013806701
 20
37.0
 30
0.0
 40
2.5
  1

 41
0.7
 51
15.0
  3
Name7:
  2
NAME7
 70
     0
  0
ATTDEF
  5
C6BF6
  8
0
 62
     4
 10
-197.1862672583826
 20
42.0
 30
0.0
 40
2.5
  1

 41
0.7
 51
15.0
  3
Index8:
  2
INDEX8
 70
     0
  0
ATTDEF
  5
C6BF7
  8
0
 62
     4
 10
-190.34874260355031
 20
42.0
 30
0.0
 40
2.5
  1

 41
0.7
 51
15.0
  3
Aenderung8:
  2
A8
 70
     0
  0
ATTDEF
  5
C6BF8
  8
0
 62
     4
 10
-157.34874260355031
 20
42.0
 30
0.0
 40
2.5
  1

 41
0.7
 51
15.0
  3
Datum8:
  2
DATUM8
 70
     0
  0
ATTDEF
  5
C6BF9
  8
0
 62
     4
 10
-144.46499013806701
 20
42.0
 30
0.0
 40
2.5
  1

 41
0.7
 51
15.0
  3
Name8:
  2
NAME8
 70
     0
  0
POLYLINE
  5
C6BFA
  8
0
 62
     2
 66
     1
 10
0.0
 20
0.0
 30
0.0
  0
VERTEX
  5
CD223
  8
0
 62
     2
 10
0.0
 20
0.0
 30
0.0
  0
VERTEX
  5
CD224
  8
0
 62
     2
 10
0.0
 20
46.0
 30
0.0
  0
SEQEND
  5
CD225
  8
0
 62
     2
  0
POLYLINE
  5
C6BFB
  8
0
 62
     2
 66
     1
 10
0.0
 20
0.0
 30
0.0
  0
VERTEX
  5
CD226
  8
0
 62
     2
 10
-200.0
 20
46.0
 30
0.0
  0
VERTEX
  5
CD227
  8
0
 62
     2
 10
-200.0
 20
0.0
 30
0.0
  0
SEQEND
  5
CD228
  8
0
 62
     2
  0
POLYLINE
  5
C6BFC
  8
0
 62
     2
 66
     1
 10
0.0
 20
0.0
 30
0.0
  0
VERTEX
  5
CD229
  8
0
 62
     2
 10
0.0
 20
9.0
 30
0.0
  0
VERTEX
  5
CD22A
  8
0
 62
     2
 10
-133.0
 20
9.0
 30
0.0
  0
SEQEND
  5
CD22B
  8
0
 62
     2
  0
POLYLINE
  5
C6BFD
  8
0
 62
     2
 66
     1
 10
0.0
 20
0.0
 30
0.0
  0
VERTEX
  5
CD22C
  8
0
 62
     2
 10
0.0
 20
18.0
 30
0.0
  0
VERTEX
  5
CD22D
  8
0
 62
     2
 10
-51.0
 20
18.0
 30
0.0
  0
SEQEND
  5
CD22E
  8
0
 62
     2
  0
POLYLINE
  5
C6BFE
  8
0
 62
     2
 66
     1
 10
0.0
 20
0.0
 30
0.0
  0
VERTEX
  5
CD22F
  8
0
 62
     2
 10
0.0
 20
26.0
 30
0.0
  0
VERTEX
  5
CD230
  8
0
 62
     2
 10
-133.0
 20
26.0
 30
0.0
  0
SEQEND
  5
CD231
  8
0
 62
     2
  0
POLYLINE
  5
C6BFF
  8
0
 62
     2
 66
     1
 10
0.0
 20
0.0
 30
0.0
  0
VERTEX
  5
CD232
  8
0
 62
     2
 10
0.0
 20
31.0
 30
0.0
  0
VERTEX
  5
CD233
  8
0
 62
     2
 10
-51.0
 20
31.0
 30
0.0
  0
SEQEND
  5
CD234
  8
0
 62
     2
  0
POLYLINE
  5
C6C00
  8
0
 62
     2
 66
     1
 10
0.0
 20
0.0
 30
0.0
  0
VERTEX
  5
CD235
  8
0
 62
     2
 10
0.0
 20
36.0
 30
0.0
  0
VERTEX
  5
CD236
  8
0
 62
     2
 10
-51.0
 20
36.0
 30
0.0
  0
SEQEND
  5
CD237
  8
0
 62
     2
  0
POLYLINE
  5
C6C01
  8
0
 62
     2
 66
     1
 10
0.0
 20
0.0
 30
0.0
  0
VERTEX
  5
CD238
  8
0
 62
     2
 10
0.0
 20
41.0
 30
0.0
  0
VERTEX
  5
CD239
  8
0
 62
     2
 10
-51.0
 20
41.0
 30
0.0
  0
SEQEND
  5
CD23A
  8
0
 62
     2
  0
POLYLINE
  5
C6C02
  8
0
 62
     2
 66
     1
 10
0.0
 20
0.0
 30
0.0
  0
VERTEX
  5
CD23B
  8
0
 62
     2
 10
0.0
 20
46.0
 30
0.0
  0
VERTEX
  5
CD23C
  8
0
 62
     2
 10
-200.0
 20
46.0
 30
0.0
  0
SEQEND
  5
CD23D
  8
0
 62
     2
  0
TEXT
  5
C6C03
  8
035
 10
517.65315784783218
 20
512.84858999021753
 30
0.0
 40
3.5
  1
  
 41
0.7
 51
15.0
  0
LINE
  5
C6C04
  8
035
 10
-128.75556832048619
 20
3.2089522248458731
 30
0.0
 11
-126.70616955508621
 21
3.2089522248458731
 31
0.0
  0
LINE
  5
C6C05
  8
035
 10
-128.094709021699
 20
6.1898958836096174
 30
0.0
 11
-125.67269229895351
 21
6.1898958836096174
 31
0.0
  0
LINE
  5
C6C06
  8
035
 10
-128.75556832048619
 20
3.2089522248458731
 30
0.0
 11
-128.094709021699
 21
6.1898958836096174
 31
0.0
  0
LINE
  5
C6C07
  8
035
 10
-126.70616955508621
 20
3.2089522248458731
 30
0.0
 11
-126.33443619951839
 21
4.8857330329004274
 31
0.0
  0
LINE
  5
C6C08
  8
035
 10
-122.1415995776042
 20
3.2089522248458731
 30
0.0
 11
-121.480740278817
 21
6.1898958836096174
 31
0.0
  0
LINE
  5
C6C09
  8
035
 10
-123.8192649874365
 20
4.8857330329004611
 30
0.0
 11
-123.53013904421699
 21
6.1898958836096174
 31
0.0
  0
LINE
  5
C6C0A
  8
035
 10
-126.33443619951839
 20
4.8857330329004611
 30
0.0
 11
-124.47046181101339
 21
3.2089522248458731
 31
0.0
  0
LINE
  5
C6C0B
  8
035
 10
-125.67269229895351
 20
6.1898958836096174
 30
0.0
 11
-123.8192649874365
 21
4.8857330329004611
 31
0.0
  0
LINE
  5
C6C0C
  8
035
 10
-123.53013904421699
 20
6.1898958836096174
 30
0.0
 11
-121.480740278817
 21
6.1898958836096174
 31
0.0
  0
LINE
  5
C6C0D
  8
035
 10
-124.47046181101339
 20
3.2089522248458731
 30
0.0
 11
-122.1415995776042
 21
3.2089522248458731
 31
0.0
  0
LINE
  5
C6C0E
  8
035
 10
-121.1169001949041
 20
3.2089522248458731
 30
0.0
 11
-120.4560408961169
 21
6.1898958836096174
 31
0.0
  0
LINE
  5
C6C0F
  8
035
 10
-118.9504523853178
 20
3.736926343802164
 30
0.0
 11
-118.77564378256569
 21
4.5254369947496018
 31
0.0
  0
LINE
  5
C6C10
  8
035
 10
-115.5152366557929
 20
4.5254369947496018
 30
0.0
 11
-115.4380926508824
 21
4.8734111137059379
 31
0.0
  0
LINE
  5
C6C11
  8
035
 10
-115.5276308347222
 20
3.2089522248458731
 30
0.0
 11
-115.410581790536
 21
3.736926343802164
 31
0.0
  0
LINE
  5
C6C12
  8
035
 10
-121.1169001949041
 20
3.2089522248458731
 30
0.0
 11
-115.5276308347222
 21
3.2089522248458731
 31
0.0
  0
LINE
  5
C6C13
  8
035
 10
-120.4560408961169
 20
6.1898958836096174
 30
0.0
 11
-114.8667715359349
 21
6.1898958836096174
 31
0.0
  0
LINE
  5
C6C14
  8
035
 10
-118.6984997776553
 20
4.8734111137059379
 30
0.0
 11
-118.52369117490301
 21
5.6619217646532061
 31
0.0
  0
LINE
  5
C6C15
  8
035
 10
-114.9838205801212
 20
5.6619217646532229
 30
0.0
 11
-114.8667715359349
 21
6.1898958836096174
 31
0.0
  0
LINE
  5
C6C16
  8
035
 10
-114.39422102995231
 20
4.1195059973169093
 30
0.0
 11
-113.93522664257119
 21
6.1898958836096174
 31
0.0
  0
LINE
  5
C6C17
  8
035
 10
-112.2931360945968
 20
4.3759284459971211
 30
0.0
 11
-111.8909891954701
 21
6.1898958836096174
 31
0.0
  0
LINE
  5
C6C18
  8
035
 10
-110.0519479814474
 20
4.2792745494674778
 30
0.0
 11
-109.62837342933619
 21
6.1898958836096174
 31
0.0
  0
LINE
  5
C6C19
  8
035
 10
-108.0752437571043
 20
3.9747288889998709
 30
0.0
 11
-107.5841530575365
 21
6.1898958836096174
 31
0.0
  0
LINE
  5
C6C1A
  8
035
 10
-113.93522664257119
 20
6.1898958836096174
 30
0.0
 11
-111.8909891954701
 21
6.1898958836096174
 31
0.0
  0
POLYLINE
  5
C6C1B
  8
035
 66
     1
 10
0.0
 20
0.0
 30
0.0
  0
VERTEX
  5
CD23E
  8
035
 10
-114.39422102995211
 20
4.1195059973169093
 30
0.0
 42
0.0533041479355404
  0
VERTEX
  5
CD23F
  8
035
 10
-114.40193616494869
 20
4.0473426288731407
 30
0.0
 42
0.2429550060825716
  0
SEQEND
  5
CD240
  8
035
  0
POLYLINE
  5
C6C1C
  8
035
 66
     1
 10
0.0
 20
0.0
 30
0.0
  0
VERTEX
  5
CD241
  8
035
 10
-114.40193616494869
 20
4.0473426288731407
 30
0.0
 42
0.2429550060825716
  0
VERTEX
  5
CD242
  8
035
 10
-114.2582140839238
 20
3.76902241533011
 30
0.0
 42
0.0830391319818528
  0
VERTEX
  5
CD243
  8
035
 10
-113.47426934517441
 20
3.3886409177960242
 30
0.0
 42
0.0412286692587949
  0
VERTEX
  5
CD244
  8
035
 10
-112.53523592918479
 20
3.1947274822628482
 30
0.0
 42
0.0303168106148105
  0
VERTEX
  5
CD245
  8
035
 10
-111.2346835275122
 20
3.115797735509434
 30
0.0
 42
0.0303168106148056
  0
VERTEX
  5
CD246
  8
035
 10
-109.9341311258396
 20
3.1947274822628482
 30
0.0
 42
0.0412286692587985
  0
VERTEX
  5
CD247
  8
035
 10
-108.99509770985
 20
3.3886409177960242
 30
0.0
 42
0.0830391319818556
  0
VERTEX
  5
CD248
  8
035
 10
-108.2111529711005
 20
3.76902241533011
 30
0.0
 42
0.1868768484129985
  0
VERTEX
  5
CD249
  8
035
 10
-108.0752437571044
 20
3.9747288889998709
 30
0.0
 42
0.2429550060826199
  0
SEQEND
  5
CD24A
  8
035
  0
POLYLINE
  5
C6C1D
  8
035
 66
     1
 10
0.0
 20
0.0
 30
0.0
  0
VERTEX
  5
CD24B
  8
035
 10
-112.2988649389131
 20
4.3268060968822528
 30
0.0
 42
0.1991045112703633
  0
VERTEX
  5
CD24C
  8
035
 10
-112.2362306163629
 20
4.1757514211997337
 30
0.0
 42
0.0984366758760737
  0
VERTEX
  5
CD24D
  8
035
 10
-111.9690267473226
 20
3.9974552413436268
 30
0.0
 42
0.0556835448182592
  0
VERTEX
  5
CD24E
  8
035
 10
-111.63143976912821
 20
3.9000426884620101
 30
0.0
 42
0.0424435076919051
  0
VERTEX
  5
CD24F
  8
035
 10
-111.172726911796
 20
3.8610336502004512
 30
0.0
 42
0.0424435076918822
  0
VERTEX
  5
CD250
  8
035
 10
-110.7140140544636
 20
3.9000426884619421
 30
0.0
 42
0.0556835448182298
  0
VERTEX
  5
CD251
  8
035
 10
-110.3764270762692
 20
3.9974552413436268
 30
0.0
 42
0.0984366758760371
  0
VERTEX
  5
CD252
  8
035
 10
-110.10922320722899
 20
4.1757514211996316
 30
0.0
 42
0.1413271427614488
  0
VERTEX
  5
CD253
  8
035
 10
-110.0519479814474
 20
4.2792745494674778
 30
0.0
 42
0.1991045112703793
  0
SEQEND
  5
CD254
  8
035
  0
POLYLINE
  5
C6C1E
  8
035
 66
     1
 10
0.0
 20
0.0
 30
0.0
  0
VERTEX
  5
CD255
  8
035
 10
-112.2931360945968
 20
4.3759284459971211
 30
0.0
 42
0.0581150540440913
  0
VERTEX
  5
CD256
  8
035
 10
-112.2988649389131
 20
4.3268060968822528
 30
0.0
 42
0.1991045112703633
  0
SEQEND
  5
CD257
  8
035
  0
LINE
  5
C6C1F
  8
035
 10
-109.62837342933619
 20
6.1898958836096174
 30
0.0
 11
-107.5841530575366
 21
6.1898958836096174
 31
0.0
  0
LINE
  5
C6C20
  8
035
 10
-107.20700925637691
 20
5.444659968918617
 30
0.0
 11
-107.0417944316801
 21
6.1898958836096174
 31
0.0
  0
LINE
  5
C6C21
  8
035
 10
-105.83956394374
 20
3.2089522248458731
 30
0.0
 11
-105.34391946964951
 21
5.444659968918617
 31
0.0
  0
LINE
  5
C6C22
  8
035
 10
-103.79016517834
 20
3.2089522248458731
 30
0.0
 11
-103.29452070424939
 21
5.444659968918617
 31
0.0
  0
LINE
  5
C6C23
  8
035
 10
-101.33827642818569
 20
5.444659968918617
 30
0.0
 11
-101.173061603489
 21
6.1898958836096174
 31
0.0
  0
LINE
  5
C6C24
  8
035
 10
-107.20700925637691
 20
5.444659968918617
 30
0.0
 11
-105.34391946964951
 21
5.444659968918617
 31
0.0
  0
LINE
  5
C6C25
  8
035
 10
-105.83956394374
 20
3.2089522248458731
 30
0.0
 11
-103.79016517834
 21
3.2089522248458731
 31
0.0
  0
LINE
  5
C6C26
  8
035
 10
-107.0417944316801
 20
6.1898958836096174
 30
0.0
 11
-101.173061603489
 21
6.1898958836096174
 31
0.0
  0
LINE
  5
C6C27
  8
035
 10
-103.29452070424939
 20
5.444659968918617
 30
0.0
 11
-101.33827642818569
 21
5.444659968918617
 31
0.0
  0
LINE
  5
C6C28
  8
035
 10
-101.1818394769216
 20
3.2089522248458051
 30
0.0
 11
-100.52098017813439
 21
6.189895883609565
 31
0.0
  0
LINE
  5
C6C29
  8
035
 10
-99.132440711521582
 20
3.2089522248458051
 30
0.0
 11
-98.886017141374879
 21
4.3204971182094676
 31
0.0
  0
LINE
  5
C6C2A
  8
035
 10
-101.1818394769216
 20
3.2089522248458051
 30
0.0
 11
-99.132440711521582
 21
3.2089522248458051
 31
0.0
  0
LINE
  5
C6C2B
  8
035
 10
-100.52098017813439
 20
6.1898958836096174
 30
0.0
 11
-95.290928624759346
 21
6.1898958836096174
 31
0.0
  0
LINE
  5
C6C2C
  8
035
 10
-94.918674734898246
 20
3.5209063363026778
 30
0.0
 11
-94.870132257751479
 21
4.2150961012516648
 31
0.0
  0
LINE
  5
C6C2D
  8
035
 10
-96.973279920251144
 20
3.446451062164297
 30
0.0
 11
-96.935760818494984
 21
3.9925148410080471
 31
0.0
  0
LINE
  5
C6C2E
  8
035
 10
-98.808873136464385
 20
4.6684712371658197
 30
0.0
 11
-98.588630456920498
 21
5.6619217646532061
 31
0.0
  0
ARC
  5
C6C2F
  8
035
 10
-94.454036886486776
 20
3.4884156928548999
 30
0.0
 40
0.4657724466818367
 50
175.99999999999881
 51
216.8698976458987
  0
ARC
  5
C6C30
  8
035
 10
-96.524731588143297
 20
3.4524951785273088
 30
0.0
 40
0.4485890520078757
 50
180.77200466132189
 51
212.88187534886279
  0
LINE
  5
C6C31
  8
035
 10
-96.901452927192295
 20
3.2089522248458051
 30
0.0
 11
-94.826654843831534
 21
3.2089522248458051
 31
0.0
  0
POLYLINE
  5
C6C32
  8
035
 66
     1
 10
0.0
 20
0.0
 30
0.0
  0
VERTEX
  5
CD258
  8
035
 10
-94.870132257750413
 20
4.2150961012515626
 30
0.0
 42
0.0848312786284099
  0
VERTEX
  5
CD259
  8
035
 10
-94.880776466524537
 20
4.3297877881289271
 30
0.0
 42
0.1530484383254131
  0
VERTEX
  5
CD25A
  8
035
 10
-94.990370323852645
 20
4.502459983347026
 30
0.0
 42
0.0253150863346336
  0
VERTEX
  5
CD25B
  8
035
 10
-95.04547907006534
 20
4.5444320109185954
 30
0.0
 42
0.0679481782030558
  0
SEQEND
  5
CD25C
  8
035
  0
POLYLINE
  5
C6C33
  8
035
 66
     1
 10
0.0
 20
0.0
 30
0.0
  0
VERTEX
  5
CD25D
  8
035
 10
-95.04547907006534
 20
4.5444320109185954
 30
0.0
 42
0.0153688240491597
  0
VERTEX
  5
CD25E
  8
035
 10
-94.909079219236318
 20
4.6142399160250331
 30
0.0
 42
0.0739810726103034
  0
VERTEX
  5
CD25F
  8
035
 10
-94.516614304132929
 20
4.9135000826235373
 30
0.0
 42
0.1068944749256624
  0
VERTEX
  5
CD260
  8
035
 10
-94.271190998582497
 20
5.3061237676075068
 30
0.0
 42
0.1530484383253946
  0
VERTEX
  5
CD261
  8
035
 10
-94.257471051485311
 20
5.6330604656076471
 30
0.0
 42
0.1530484383254131
  0
VERTEX
  5
CD262
  8
035
 10
-94.432821223210169
 20
5.9093359779565686
 30
0.0
 42
0.1068944749256794
  0
VERTEX
  5
CD263
  8
035
 10
-94.841675882989591
 20
6.126646410505006
 30
0.0
 42
0.0679481782030558
  0
VERTEX
  5
CD264
  8
035
 10
-95.290928624759346
 20
6.1898958836113041
 30
0.0
 42
0.0605663674549872
  0
SEQEND
  5
CD265
  8
035
  0
LINE
  5
C6C34
  8
035
 10
-93.915789308684992
 20
3.2089522248458051
 30
0.0
 11
-93.254930009897706
 21
6.189895883609565
 31
0.0
  0
LINE
  5
C6C35
  8
035
 10
-91.86639054328495
 20
3.2089522248458051
 30
0.0
 11
-91.205531244497678
 21
6.189895883609565
 31
0.0
  0
LINE
  5
C6C36
  8
035
 10
-93.915789308684992
 20
3.2089522248458051
 30
0.0
 11
-91.86639054328495
 21
3.2089522248458051
 31
0.0
  0
LINE
  5
C6C37
  8
035
 10
-93.254930009897706
 20
6.189895883609565
 30
0.0
 11
-91.205531244497678
 21
6.189895883609565
 31
0.0
  0
LINE
  5
C6C38
  8
035
 10
-90.655382181912188
 20
3.2089522248458051
 30
0.0
 11
-89.994522883124887
 21
6.189895883609565
 31
0.0
  0
LINE
  5
C6C39
  8
035
 10
-88.699137905848474
 20
3.2089522248458051
 30
0.0
 11
-88.533923081151713
 21
3.954188139536805
 31
0.0
  0
LINE
  5
C6C3A
  8
035
 10
-89.994522883124887
 20
6.189895883609565
 30
0.0
 11
-88.038278607061187
 21
6.189895883609565
 31
0.0
  0
LINE
  5
C6C3B
  8
035
 10
-90.655382181912188
 20
3.2089522248458051
 30
0.0
 11
-88.699137905848474
 21
3.2089522248458051
 31
0.0
  0
LINE
  5
C6C3C
  8
035
 10
-88.533923081151713
 20
3.954188139536805
 30
0.0
 11
-87.659502509444039
 21
4.3268060968822528
 31
0.0
  0
LINE
  5
C6C3D
  8
035
 10
-88.261804546356856
 20
5.1816355284394691
 30
0.0
 11
-85.895725352324675
 21
6.189895883609565
 31
0.0
  0
LINE
  5
C6C3E
  8
035
 10
-85.895725352324675
 20
6.189895883609565
 30
0.0
 11
-83.287399650906423
 21
6.189895883609565
 31
0.0
  0
LINE
  5
C6C3F
  8
035
 10
-87.659502509444039
 20
4.3268060968822528
 30
0.0
 11
-86.556584651112004
 21
3.2089522248458051
 31
0.0
  0
LINE
  5
C6C40
  8
035
 10
-85.692056223102114
 20
5.1651965009095901
 30
0.0
 11
-83.761949971020954
 21
3.2089522248458051
 31
0.0
  0
LINE
  5
C6C41
  8
035
 10
-85.692056223102114
 20
5.1651965009095901
 30
0.0
 11
-83.287399650906423
 21
6.189895883609565
 31
0.0
  0
LINE
  5
C6C42
  8
035
 10
-88.261804546356856
 20
5.1816355284394691
 30
0.0
 11
-88.038278607061187
 21
6.189895883609565
 31
0.0
  0
LINE
  5
C6C43
  8
035
 10
-86.556584651112004
 20
3.2089522248458051
 30
0.0
 11
-83.761949971020954
 21
3.2089522248458051
 31
0.0
  0
TEXT
  5
C6C44
  8
035
 62
     4
 10
-78.273304881030242
 20
3.264636211106505
 30
0.0
 40
2.484848484848484
  1
NINGBO CHINA
 41
0.85
 51
15.0
  7
HELV
  0
LINE
  5
C6C45
  8
035
 10
-118.52369117490301
 20
5.6619217646532061
 30
0.0
 11
-114.9838205801212
 21
5.6619217646532229
 31
0.0
  0
LINE
  5
C6C46
  8
035
 10
-118.6984997776553
 20
4.8734111137059379
 30
0.0
 11
-115.4380926508824
 21
4.8734111137059379
 31
0.0
  0
LINE
  5
C6C47
  8
035
 10
-118.77564378256569
 20
4.5254369947496018
 30
0.0
 11
-115.5152366557929
 21
4.5254369947496018
 31
0.0
  0
LINE
  5
C6C48
  8
035
 10
-118.9504523853178
 20
3.736926343802164
 30
0.0
 11
-115.410581790536
 21
3.736926343802164
 31
0.0
  0
LINE
  5
C6C49
  8
0
 62
     4
 10
-83.394402359718015
 20
6.144298682356693
 30
0.0
 11
-83.348805158465154
 21
6.1898958836095481
 31
0.0
  0
LINE
  5
C6C4A
  8
0
 62
     4
 10
-83.784164404957352
 20
3.2089522248457878
 30
0.0
 11
-83.772982485333955
 21
3.2201341444691729
 31
0.0
  0
LINE
  5
C6C4B
  8
035
 10
-98.588630456920498
 20
5.6619217646532061
 30
0.0
 11
-96.900758252506478
 21
5.6619217646532061
 31
0.0
  0
LINE
  5
C6C4C
  8
035
 10
-98.808873136464385
 20
4.6684712371658197
 30
0.0
 11
-97.176482420097443
 21
4.6684712371658197
 31
0.0
  0
LINE
  5
C6C4D
  8
035
 10
-98.886017141374879
 20
4.3204971182094676
 30
0.0
 11
-97.147354744985734
 21
4.3204971182094676
 31
0.0
  0
LINE
  5
C6C4E
  8
035
 10
-96.900758252506478
 20
5.6619217646532061
 30
0.0
 11
-96.767537947348103
 21
5.6401251817589433
 31
0.0
  0
LINE
  5
C6C4F
  8
035
 10
-96.767537947348103
 20
5.6401251817589433
 30
0.0
 11
-96.652102072247857
 21
5.5816478242916414
 31
0.0
  0
LINE
  5
C6C50
  8
035
 10
-96.652102072247857
 20
5.5816478242916414
 30
0.0
 11
-96.596690756971086
 21
5.4923963524172636
 31
0.0
  0
LINE
  5
C6C51
  8
035
 10
-96.596690756971086
 20
5.4923963524172636
 30
0.0
 11
-96.553596393071174
 21
5.3846780336826923
 31
0.0
  0
LINE
  5
C6C52
  8
035
 10
-96.553596393071174
 20
5.3846780336826923
 30
0.0
 11
-96.552054903409157
 21
5.2677292642879561
 31
0.0
  0
LINE
  5
C6C53
  8
035
 10
-96.552054903409157
 20
5.2677292642879561
 30
0.0
 11
-96.564368113306287
 21
5.0984567711993662
 31
0.0
  0
LINE
  5
C6C54
  8
035
 10
-96.564368113306287
 20
5.0984567711993662
 30
0.0
 11
-96.625937904271467
 21
4.9953581369497799
 31
0.0
  0
LINE
  5
C6C55
  8
035
 10
-96.625937904271467
 20
4.9953581369497799
 30
0.0
 11
-96.735215303683276
 21
4.8676330765267011
 31
0.0
  0
LINE
  5
C6C56
  8
035
 10
-96.735215303683276
 20
4.8676330765267011
 30
0.0
 11
-96.899907759851644
 21
4.7691481812222181
 31
0.0
  0
LINE
  5
C6C57
  8
035
 10
-96.899907759851644
 20
4.7691481812222181
 30
0.0
 11
-97.056903992149316
 21
4.6891301327779473
 31
0.0
  0
LINE
  5
C6C58
  8
035
 10
-97.056903992149316
 20
4.6891301327779473
 30
0.0
 11
-97.176482420097443
 21
4.6684712371658197
 31
0.0
  0
LINE
  5
C6C59
  8
035
 10
-97.147354744985734
 20
4.3204971182094676
 30
0.0
 11
-97.047898250361925
 21
4.3065049139473466
 31
0.0
  0
LINE
  5
C6C5A
  8
035
 10
-97.047898250361925
 20
4.3065049139473466
 30
0.0
 11
-96.984057381181131
 21
4.2661287526377603
 31
0.0
  0
LINE
  5
C6C5B
  8
035
 10
-96.984057381181131
 20
4.2661287526377603
 30
0.0
 11
-96.944973883586158
 21
4.2023033820504541
 31
0.0
  0
LINE
  5
C6C5C
  8
035
 10
-96.944973883586158
 20
4.2023033820504541
 30
0.0
 11
-96.926734169745899
 21
4.1254543063610036
 31
0.0
  0
LINE
  5
C6C5D
  8
035
 10
-96.926734169745899
 20
4.1254543063610036
 30
0.0
 11
-96.935760818494984
 21
3.9925148410080471
 31
0.0
  0
LINE
  5
C6C5E
  8
035
 62
     3
 10
-99.397082133556324
 20
3.2089522248457878
 30
0.0
 11
-99.057059510901098
 21
3.5489748475010141
 31
0.0
  0
LINE
  5
C6C5F
  8
035
 62
     3
 10
-96.944112593748883
 20
5.6619217646532229
 30
0.0
 11
-96.416138474792476
 21
6.1898958836096334
 31
0.0
  0
LINE
  5
C6C60
  8
035
 62
     3
 10
-98.285537240192653
 20
4.3204971182094676
 30
0.0
 11
-97.93756312123628
 21
4.6684712371658197
 31
0.0
  0
LINE
  5
C6C61
  8
035
 62
     3
 10
-99.778919795397044
 20
3.2089522248457878
 30
0.0
 11
-98.94829580652565
 21
4.0395762137171944
 31
0.0
  0
LINE
  5
C6C62
  8
035
 62
     3
 10
-97.325950255589589
 20
5.6619217646532229
 30
0.0
 11
-96.79797613663321
 21
6.1898958836096334
 31
0.0
  0
LINE
  5
C6C63
  8
035
 62
     3
 10
-98.667374902033359
 20
4.3204971182094676
 30
0.0
 11
-98.319400783077015
 21
4.6684712371658197
 31
0.0
  0
LINE
  5
C6C64
  8
035
 62
     3
 10
-100.16075745723781
 20
3.2089522248457878
 30
0.0
 11
-98.701238444917735
 21
4.6684712371658197
 31
0.0
  0
LINE
  5
C6C65
  8
035
 62
     3
 10
-97.707787917430323
 20
5.6619217646532229
 30
0.0
 11
-97.179813798473916
 21
6.1898958836096334
 31
0.0
  0
LINE
  5
C6C66
  8
035
 62
     3
 10
-100.5425951190785
 20
3.2089522248457878
 30
0.0
 11
-98.730768397774682
 21
5.0207789461496377
 31
0.0
  0
LINE
  5
C6C67
  8
035
 62
     3
 10
-98.089625579271086
 20
5.6619217646532229
 30
0.0
 11
-97.561651460314664
 21
6.1898958836096334
 31
0.0
  0
LINE
  5
C6C68
  8
035
 62
     3
 10
-100.9244327809192
 20
3.2089522248457878
 30
0.0
 11
-98.62200469339912
 21
5.5113803123659197
 31
0.0
  0
LINE
  5
C6C69
  8
035
 62
     3
 10
-98.47146324111182
 20
5.6619217646532229
 30
0.0
 11
-97.943489122155412
 21
6.1898958836096334
 31
0.0
  0
LINE
  5
C6C6A
  8
035
 62
     3
 10
-101.1463962136292
 20
3.3688264539765349
 30
0.0
 11
-98.325326783996161
 21
6.1898958836096334
 31
0.0
  0
LINE
  5
C6C6B
  8
035
 62
     3
 10
-101.0376325092537
 20
3.8594278201927321
 30
0.0
 11
-98.707164445836867
 21
6.1898958836096334
 31
0.0
  0
LINE
  5
C6C6C
  8
035
 62
     3
 10
-100.92886880487831
 20
4.3500291864089462
 30
0.0
 11
-99.089002107677615
 21
6.1898958836096334
 31
0.0
  0
LINE
  5
C6C6D
  8
035
 62
     3
 10
-100.8201051005028
 20
4.8406305526251421
 30
0.0
 11
-99.470839769518363
 21
6.1898958836096334
 31
0.0
  0
LINE
  5
C6C6E
  8
035
 62
     3
 10
-100.7113413961273
 20
5.3312319188413557
 30
0.0
 11
-99.852677431359055
 21
6.1898958836096334
 31
0.0
  0
LINE
  5
C6C6F
  8
035
 62
     3
 10
-100.6025776917519
 20
5.8218332850575534
 30
0.0
 11
-100.2345150931998
 21
6.1898958836096334
 31
0.0
  0
LINE
  5
C6C70
  8
035
 62
     3
 10
-101.3615886697315
 20
5.444659968918617
 30
0.0
 11
-101.33163610429619
 21
5.4746125343539136
 31
0.0
  0
LINE
  5
C6C71
  8
035
 62
     3
 10
-103.97913407564501
 20
3.2089522248458562
 30
0.0
 11
-103.7363387506806
 21
3.4517475498102299
 31
0.0
  0
LINE
  5
C6C72
  8
035
 62
     3
 10
-101.74342633157229
 20
5.444659968918617
 30
0.0
 11
-101.2228723999209
 21
5.9652139005700429
 31
0.0
  0
LINE
  5
C6C73
  8
035
 62
     3
 10
-104.3609717374858
 20
3.2089522248458562
 30
0.0
 11
-103.6275750463052
 21
3.9423489160264769
 31
0.0
  0
LINE
  5
C6C74
  8
035
 62
     3
 10
-102.125263993413
 20
5.444659968918617
 30
0.0
 11
-101.38002807872201
 21
6.1898958836096334
 31
0.0
  0
LINE
  5
C6C75
  8
035
 62
     3
 10
-104.7428093993265
 20
3.2089522248458562
 30
0.0
 11
-103.51881134192971
 21
4.4329502822427092
 31
0.0
  0
LINE
  5
C6C76
  8
035
 62
     3
 10
-102.50710165525381
 20
5.444659968918617
 30
0.0
 11
-101.7618657405627
 21
6.1898958836096334
 31
0.0
  0
LINE
  5
C6C77
  8
035
 62
     3
 10
-105.1246470611672
 20
3.2089522248458562
 30
0.0
 11
-103.4100476375542
 21
4.9235516484589388
 31
0.0
  0
LINE
  5
C6C78
  8
035
 62
     3
 10
-102.8889393170945
 20
5.444659968918617
 30
0.0
 11
-102.1437034024035
 21
6.1898958836096334
 31
0.0
  0
LINE
  5
C6C79
  8
035
 62
     3
 10
-105.506484723008
 20
3.2089522248458562
 30
0.0
 11
-103.30128393317869
 21
5.4141530146751533
 31
0.0
  0
LINE
  5
C6C7A
  8
035
 62
     3
 10
-103.2707769789352
 20
5.444659968918617
 30
0.0
 11
-102.52554106424419
 21
6.1898958836096334
 31
0.0
  0
LINE
  5
C6C7B
  8
035
 62
     3
 10
-105.82567545340881
 20
3.2715991562857849
 30
0.0
 11
-102.9073787260849
 21
6.1898958836096334
 31
0.0
  0
LINE
  5
C6C7C
  8
035
 62
     3
 10
-105.7169117490333
 20
3.7622005225019981
 30
0.0
 11
-103.28921638792571
 21
6.1898958836096334
 31
0.0
  0
LINE
  5
C6C7D
  8
035
 62
     3
 10
-105.6081480446579
 20
4.2528018887182286
 30
0.0
 11
-103.6710540497664
 21
6.1898958836096334
 31
0.0
  0
LINE
  5
C6C7E
  8
035
 62
     3
 10
-105.4993843402824
 20
4.7434032549344263
 30
0.0
 11
-104.0528917116071
 21
6.1898958836096334
 31
0.0
  0
LINE
  5
C6C7F
  8
035
 62
     3
 10
-105.3906206359069
 20
5.2340046211506399
 30
0.0
 11
-104.43472937344789
 21
6.1898958836096334
 31
0.0
  0
LINE
  5
C6C80
  8
035
 62
     3
 10
-105.56180294997959
 20
5.444659968918617
 30
0.0
 11
-104.8165670352886
 21
6.1898958836096334
 31
0.0
  0
LINE
  5
C6C81
  8
035
 62
     3
 10
-105.9436406118204
 20
5.444659968918617
 30
0.0
 11
-105.19840469712931
 21
6.1898958836096334
 31
0.0
  0
LINE
  5
C6C82
  8
035
 62
     3
 10
-106.3254782736611
 20
5.444659968918617
 30
0.0
 11
-105.5802423589701
 21
6.1898958836096334
 31
0.0
  0
LINE
  5
C6C83
  8
035
 62
     3
 10
-108.6223837756901
 20
3.5295921287303851
 30
0.0
 11
-108.0461888645634
 21
4.1057870398570309
 31
0.0
  0
LINE
  5
C6C84
  8
035
 62
     3
 10
-106.7073159355018
 20
5.444659968918617
 30
0.0
 11
-105.9620800208108
 21
6.1898958836096334
 31
0.0
  0
LINE
  5
C6C85
  8
035
 62
     3
 10
-109.20187581553419
 20
3.3319377507270209
 30
0.0
 11
-107.9374251601879
 21
4.5963884060732454
 31
0.0
  0
LINE
  5
C6C86
  8
035
 62
     3
 10
-107.0891535973426
 20
5.444659968918617
 30
0.0
 11
-106.34391768265159
 21
6.1898958836096334
 31
0.0
  0
LINE
  5
C6C87
  8
035
 62
     3
 10
-109.685112547144
 20
3.2305386809579169
 30
0.0
 11
-107.82866145581249
 21
5.086989772289475
 31
0.0
  0
LINE
  5
C6C88
  8
035
 62
     3
 10
-107.13181588656821
 20
5.7838353415337762
 30
0.0
 11
-106.7257553444923
 21
6.1898958836096334
 31
0.0
  0
LINE
  5
C6C89
  8
035
 62
     3
 10
-110.1242038578462
 20
3.1732850320964721
 30
0.0
 11
-107.719897751437
 21
5.5775911385057064
 31
0.0
  0
LINE
  5
C6C8A
  8
035
 62
     3
 10
-110.54114237449591
 20
3.1381841772874299
 30
0.0
 11
-107.6111340470615
 21
6.0681925047219201
 31
0.0
  0
LINE
  5
C6C8B
  8
035
 62
     3
 10
-110.9413656849794
 20
3.1197985286446981
 30
0.0
 11
-107.8712683300145
 21
6.1898958836096174
 31
0.0
  0
LINE
  5
C6C8C
  8
035
 62
     3
 10
-111.3268095365532
 20
3.1161923389116928
 30
0.0
 11
-110.4862919020804
 21
3.9567099733844451
 31
0.0
  0
LINE
  5
C6C8D
  8
035
 62
     3
 10
-110.0201084412425
 20
4.4228934342223249
 30
0.0
 11
-108.25310599185519
 21
6.1898958836096174
 31
0.0
  0
LINE
  5
C6C8E
  8
035
 62
     3
 10
-111.69901312532539
 20
3.1258264119801851
 30
0.0
 11
-110.95507239316839
 21
3.8697671441372301
 31
0.0
  0
LINE
  5
C6C8F
  8
035
 62
     3
 10
-109.91134473686699
 20
4.9134948004385732
 30
0.0
 11
-108.634943653696
 21
6.1898958836096174
 31
0.0
  0
LINE
  5
C6C90
  8
035
 62
     3
 10
-112.05922377853371
 20
3.1474534206126319
 30
0.0
 11
-111.3404602385114
 21
3.866216960634917
 31
0.0
  0
LINE
  5
C6C91
  8
035
 62
     3
 10
-109.8025810324915
 20
5.4040961666548384
 30
0.0
 11
-109.0167813155367
 21
6.1898958836096174
 31
0.0
  0
LINE
  5
C6C92
  8
035
 62
     3
 10
-112.40846839019569
 20
3.1800464707913392
 30
0.0
 11
-111.6794767945423
 21
3.9090380664447841
 31
0.0
  0
LINE
  5
C6C93
  8
035
 62
     3
 10
-109.693817328116
 20
5.8946975328710858
 30
0.0
 11
-109.3986189773774
 21
6.1898958836096174
 31
0.0
  0
LINE
  5
C6C94
  8
035
 62
     3
 10
-112.746026423499
 20
3.2243260993287799
 30
0.0
 11
-111.9717607396246
 21
3.9985917832031901
 31
0.0
  0
LINE
  5
C6C95
  8
035
 62
     3
 10
-113.0674304360607
 20
3.2847597486078559
 30
0.0
 11
-112.2055448239268
 21
4.1466453607417657
 31
0.0
  0
LINE
  5
C6C96
  8
035
 62
     3
 10
-113.37392582005521
 20
3.3601020264540549
 30
0.0
 11
-112.27463176538591
 21
4.4593960811233924
 31
0.0
  0
LINE
  5
C6C97
  8
035
 62
     3
 10
-113.66365029250341
 20
3.4522152158466688
 30
0.0
 11
-112.1658680610105
 21
4.9499974473395554
 31
0.0
  0
LINE
  5
C6C98
  8
035
 62
     3
 10
-113.9283730895371
 20
3.569330080653637
 30
0.0
 11
-112.05710435663499
 21
5.4405988135557344
 31
0.0
  0
LINE
  5
C6C99
  8
035
 62
     3
 10
-114.1703111462936
 20
3.709229685737883
 30
0.0
 11
-111.9483406522596
 21
5.9312001797718974
 31
0.0
  0
LINE
  5
C6C9A
  8
035
 62
     3
 10
-114.36616270988991
 20
3.895215783982362
 30
0.0
 11
-112.07148261026261
 21
6.1898958836096174
 31
0.0
  0
LINE
  5
C6C9B
  8
035
 62
     3
 10
-114.3573369855183
 20
4.2858791701946659
 30
0.0
 11
-112.4533202721033
 21
6.1898958836096174
 31
0.0
  0
LINE
  5
C6C9C
  8
035
 62
     3
 10
-115.8161015927078
 20
3.2089522248458899
 30
0.0
 11
-115.4454620195999
 21
3.579591797953773
 31
0.0
  0
LINE
  5
C6C9D
  8
035
 62
     3
 10
-114.2485732811428
 20
4.7764805364108982
 30
0.0
 11
-112.8351579339441
 21
6.1898958836096174
 31
0.0
  0
LINE
  5
C6C9E
  8
035
 62
     3
 10
-116.1979392545486
 20
3.2089522248458899
 30
0.0
 11
-115.66996513559231
 21
3.736926343802164
 31
0.0
  0
LINE
  5
C6C9F
  8
035
 62
     3
 10
-114.13980957676731
 20
5.2670819026271278
 30
0.0
 11
-113.21699559578479
 21
6.1898958836096174
 31
0.0
  0
LINE
  5
C6CA0
  8
035
 62
     3
 10
-116.57977691638931
 20
3.2089522248458899
 30
0.0
 11
-116.051802797433
 21
3.736926343802164
 31
0.0
  0
LINE
  5
C6CA1
  8
035
 62
     3
 10
-114.0310458723919
 20
5.7576832688433246
 30
0.0
 11
-113.5988332576255
 21
6.1898958836096174
 31
0.0
  0
LINE
  5
C6CA2
  8
035
 62
     3
 10
-116.96161457823
 20
3.2089522248458899
 30
0.0
 11
-116.4336404592737
 21
3.736926343802164
 31
0.0
  0
LINE
  5
C6CA3
  8
035
 62
     3
 10
-115.6451298083263
 20
4.5254369947496196
 30
0.0
 11
-115.4782375280105
 21
4.6923292750653642
 31
0.0
  0
LINE
  5
C6CA4
  8
035
 62
     3
 10
-117.3434522400708
 20
3.2089522248458899
 30
0.0
 11
-116.8154781211145
 21
3.736926343802164
 31
0.0
  0
LINE
  5
C6CA5
  8
035
 62
     3
 10
-116.02696747016699
 20
4.5254369947496196
 30
0.0
 11
-115.67899335121071
 21
4.8734111137059379
 31
0.0
  0
LINE
  5
C6CA6
  8
035
 62
     3
 10
-117.72528990191149
 20
3.2089522248458899
 30
0.0
 11
-117.1973157829552
 21
3.736926343802164
 31
0.0
  0
LINE
  5
C6CA7
  8
035
 62
     3
 10
-115.2723203621041
 20
5.6619217646532229
 30
0.0
 11
-114.9016434977226
 21
6.0325986290348084
 31
0.0
  0
LINE
  5
C6CA8
  8
035
 62
     3
 10
-116.4088051320078
 20
4.5254369947496196
 30
0.0
 11
-116.0608310130514
 21
4.8734111137059379
 31
0.0
  0
LINE
  5
C6CA9
  8
035
 62
     3
 10
-118.1071275637522
 20
3.2089522248458899
 30
0.0
 11
-117.57915344479591
 21
3.736926343802164
 31
0.0
  0
LINE
  5
C6CAA
  8
035
 62
     3
 10
-115.6541580239449
 20
5.6619217646532229
 30
0.0
 11
-115.12618390498849
 21
6.1898958836096174
 31
0.0
  0
LINE
  5
C6CAB
  8
035
 62
     3
 10
-116.79064279384851
 20
4.5254369947496196
 30
0.0
 11
-116.4426686748922
 21
4.8734111137059379
 31
0.0
  0
LINE
  5
C6CAC
  8
035
 62
     3
 10
-118.48896522559301
 20
3.2089522248458899
 30
0.0
 11
-117.9609911066367
 21
3.736926343802164
 31
0.0
  0
LINE
  5
C6CAD
  8
035
 62
     3
 10
-116.03599568578569
 20
5.6619217646532229
 30
0.0
 11
-115.5080215668292
 21
6.1898958836096174
 31
0.0
  0
LINE
  5
C6CAE
  8
035
 62
     3
 10
-117.1724804556892
 20
4.5254369947496196
 30
0.0
 11
-116.8245063367329
 21
4.8734111137059379
 31
0.0
  0
LINE
  5
C6CAF
  8
035
 62
     3
 10
-118.8708028874337
 20
3.2089522248458899
 30
0.0
 11
-118.3428287684774
 21
3.736926343802164
 31
0.0
  0
LINE
  5
C6CB0
  8
035
 62
     3
 10
-116.4178333476264
 20
5.6619217646532229
 30
0.0
 11
-115.88985922867001
 21
6.1898958836096174
 31
0.0
  0
LINE
  5
C6CB1
  8
035
 62
     3
 10
-117.55431811753
 20
4.5254369947496196
 30
0.0
 11
-117.2063439985737
 21
4.8734111137059379
 31
0.0
  0
LINE
  5
C6CB2
  8
035
 62
     3
 10
-119.2526405492744
 20
3.2089522248458899
 30
0.0
 11
-118.72466643031809
 21
3.736926343802164
 31
0.0
  0
LINE
  5
C6CB3
  8
035
 62
     3
 10
-116.7996710094671
 20
5.6619217646532061
 30
0.0
 11
-116.2716968905107
 21
6.1898958836096174
 31
0.0
  0
LINE
  5
C6CB4
  8
035
 62
     3
 10
-117.93615577937069
 20
4.5254369947496196
 30
0.0
 11
-117.58818166041441
 21
4.8734111137059379
 31
0.0
  0
LINE
  5
C6CB5
  8
035
 62
     3
 10
-119.63447821111519
 20
3.2089522248458899
 30
0.0
 11
-118.9060021819818
 21
3.9374282539792231
 31
0.0
  0
LINE
  5
C6CB6
  8
035
 62
     3
 10
-117.1815086713078
 20
5.6619217646532061
 30
0.0
 11
-116.6535345523514
 21
6.1898958836096174
 31
0.0
  0
LINE
  5
C6CB7
  8
035
 62
     3
 10
-118.3179934412114
 20
4.5254369947496196
 30
0.0
 11
-117.9700193222551
 21
4.8734111137059379
 31
0.0
  0
LINE
  5
C6CB8
  8
035
 62
     3
 10
-120.0163158729559
 20
3.2089522248458899
 30
0.0
 11
-118.7972384776065
 21
4.4280296201953337
 31
0.0
  0
LINE
  5
C6CB9
  8
035
 62
     3
 10
-117.5633463331486
 20
5.6619217646532061
 30
0.0
 11
-117.03537221419219
 21
6.1898958836096174
 31
0.0
  0
LINE
  5
C6CBA
  8
035
 62
     3
 10
-118.6998311030522
 20
4.5254369947496196
 30
0.0
 11
-118.3518569840958
 21
4.8734111137059379
 31
0.0
  0
LINE
  5
C6CBB
  8
035
 62
     3
 10
-120.39815353479661
 20
3.2089522248458899
 30
0.0
 11
-118.68847477323111
 21
4.9186309864114293
 31
0.0
  0
LINE
  5
C6CBC
  8
035
 62
     3
 10
-117.94518399498931
 20
5.6619217646532061
 30
0.0
 11
-117.4172098760329
 21
6.1898958836096174
 31
0.0
  0
LINE
  5
C6CBD
  8
035
 62
     3
 10
-120.7799911966374
 20
3.2089522248458899
 30
0.0
 11
-118.5797110688555
 21
5.4092323526277619
 31
0.0
  0
LINE
  5
C6CBE
  8
035
 62
     3
 10
-118.3270216568301
 20
5.6619217646532061
 30
0.0
 11
-117.79904753787361
 21
6.1898958836096174
 31
0.0
  0
LINE
  5
C6CBF
  8
035
 62
     3
 10
-121.1041025890855
 20
3.266678494238564
 30
0.0
 11
-118.1808851997144
 21
6.1898958836096174
 31
0.0
  0
LINE
  5
C6CC0
  8
035
 62
     3
 10
-120.99533888470999
 20
3.7572798604547608
 30
0.0
 11
-118.5627228615551
 21
6.1898958836096174
 31
0.0
  0
LINE
  5
C6CC1
  8
035
 62
     3
 10
-120.8865751803345
 20
4.247881226670958
 30
0.0
 11
-118.94456052339579
 21
6.1898958836096174
 31
0.0
  0
LINE
  5
C6CC2
  8
035
 62
     3
 10
-122.30734184400031
 20
3.2089522248458731
 30
0.0
 11
-122.09438908826191
 21
3.4219049805843289
 31
0.0
  0
LINE
  5
C6CC3
  8
035
 62
     3
 10
-120.7778114759591
 20
4.738482592887137
 30
0.0
 11
-119.3263981852366
 21
6.1898958836096174
 31
0.0
  0
LINE
  5
C6CC4
  8
035
 62
     3
 10
-122.6891795058411
 20
3.2089522248458731
 30
0.0
 11
-121.9856253838864
 21
3.912506346800543
 31
0.0
  0
LINE
  5
C6CC5
  8
035
 62
     3
 10
-120.66904777158361
 20
5.2290839591033507
 30
0.0
 11
-119.7082358470773
 21
6.1898958836096174
 31
0.0
  0
LINE
  5
C6CC6
  8
035
 62
     3
 10
-123.0710171676818
 20
3.2089522248458731
 30
0.0
 11
-121.8768616795109
 21
4.4031077130167571
 31
0.0
  0
LINE
  5
C6CC7
  8
035
 62
     3
 10
-120.5602840672082
 20
5.7196853253195483
 30
0.0
 11
-120.090073508918
 21
6.1898958836096174
 31
0.0
  0
LINE
  5
C6CC8
  8
035
 62
     3
 10
-123.45285482952249
 20
3.2089522248458731
 30
0.0
 11
-121.7680979751354
 21
4.893709079232953
 31
0.0
  0
LINE
  5
C6CC9
  8
035
 62
     3
 10
-123.8346924913633
 20
3.2089522248458731
 30
0.0
 11
-121.65933427076
 21
5.3843104454491497
 31
0.0
  0
LINE
  5
C6CCA
  8
035
 62
     3
 10
-124.216530153204
 20
3.2089522248458731
 30
0.0
 11
-121.55057056638449
 21
5.8749118116653651
 31
0.0
  0
LINE
  5
C6CCB
  8
035
 62
     3
 10
-124.53779589722249
 20
3.2695241426681458
 30
0.0
 11
-121.617424156281
 21
6.1898958836096174
 31
0.0
  0
LINE
  5
C6CCC
  8
035
 62
     3
 10
-124.73880827529629
 20
3.4503494264350341
 30
0.0
 11
-121.9992618181217
 21
6.1898958836096174
 31
0.0
  0
LINE
  5
C6CCD
  8
035
 62
     3
 10
-124.93982065337021
 20
3.6311747102019201
 30
0.0
 11
-122.3810994799625
 21
6.1898958836096174
 31
0.0
  0
LINE
  5
C6CCE
  8
035
 62
     3
 10
-125.140833031444
 20
3.8119999939688078
 30
0.0
 11
-123.964738004376
 21
4.9880950210368242
 31
0.0
  0
LINE
  5
C6CCF
  8
035
 62
     3
 10
-123.7486709734882
 20
5.2041620519246381
 30
0.0
 11
-122.76293714180321
 21
6.1898958836096174
 31
0.0
  0
LINE
  5
C6CD0
  8
035
 62
     3
 10
-125.3418454095179
 20
3.9928252777356952
 30
0.0
 11
-124.188867265826
 21
5.1458034214275887
 31
0.0
  0
LINE
  5
C6CD1
  8
035
 62
     3
 10
-123.6399072691127
 20
5.6947634181409033
 30
0.0
 11
-123.1447748036439
 21
6.1898958836096174
 31
0.0
  0
LINE
  5
C6CD2
  8
035
 62
     3
 10
-125.5428577875917
 20
4.1736505615026003
 30
0.0
 11
-124.41299652727589
 21
5.303511821818371
 31
0.0
  0
LINE
  5
C6CD3
  8
035
 62
     3
 10
-123.53114356473711
 20
6.1853647843571498
 30
0.0
 11
-123.5266124654847
 21
6.1898958836096174
 31
0.0
  0
LINE
  5
C6CD4
  8
035
 62
     3
 10
-126.8893937860892
 20
3.2089522248458562
 30
0.0
 11
-126.65397945419581
 21
3.4443665567392281
 31
0.0
  0
LINE
  5
C6CD5
  8
035
 62
     3
 10
-125.7438701656655
 20
4.3544758452694881
 30
0.0
 11
-124.6371257887259
 21
5.461220222209155
 31
0.0
  0
LINE
  5
C6CD6
  8
035
 62
     3
 10
-127.27123144792991
 20
3.2089522248458562
 30
0.0
 11
-126.5452157498203
 21
3.9349679229554591
 31
0.0
  0
LINE
  5
C6CD7
  8
035
 62
     3
 10
-125.9448825437394
 20
4.5353011290363741
 30
0.0
 11
-124.8612550501758
 21
5.6189286225999204
 31
0.0
  0
LINE
  5
C6CD8
  8
035
 62
     3
 10
-127.6530691097707
 20
3.2089522248458562
 30
0.0
 11
-126.4364520454448
 21
4.4255692891716558
 31
0.0
  0
LINE
  5
C6CD9
  8
035
 62
     3
 10
-126.14589492181319
 20
4.7161264128032618
 30
0.0
 11
-125.0853843116258
 21
5.7766370229907027
 31
0.0
  0
LINE
  5
C6CDA
  8
035
 62
     3
 10
-128.03490677161139
 20
3.2089522248458562
 30
0.0
 11
-125.3095135730758
 21
5.9343454233814681
 31
0.0
  0
LINE
  5
C6CDB
  8
035
 62
     3
 10
-128.4167444334521
 20
3.2089522248458562
 30
0.0
 11
-125.53364283452569
 21
6.0920538237722521
 31
0.0
  0
LINE
  5
C6CDC
  8
035
 62
     3
 10
-128.7433161569239
 20
3.264218163214835
 30
0.0
 11
-125.81763843652909
 21
6.1898958836096174
 31
0.0
  0
LINE
  5
C6CDD
  8
035
 62
     3
 10
-128.63455245254841
 20
3.7548195294310309
 30
0.0
 11
-126.1994760983699
 21
6.1898958836096174
 31
0.0
  0
LINE
  5
C6CDE
  8
035
 62
     3
 10
-128.52578874817289
 20
4.2454208956472277
 30
0.0
 11
-126.58131376021061
 21
6.1898958836096174
 31
0.0
  0
LINE
  5
C6CDF
  8
035
 62
     3
 10
-128.41702504379751
 20
4.7360222618634422
 30
0.0
 11
-126.9631514220513
 21
6.1898958836096174
 31
0.0
  0
LINE
  5
C6CE0
  8
035
 62
     3
 10
-128.30826133942199
 20
5.2266236280796381
 30
0.0
 11
-127.344989083892
 21
6.1898958836096174
 31
0.0
  0
LINE
  5
C6CE1
  8
035
 62
     3
 10
-128.1994976350465
 20
5.7172249942958517
 30
0.0
 11
-127.72682674573279
 21
6.1898958836096174
 31
0.0
  0
LINE
  5
C6CE2
  8
035
 62
     3
 10
-97.903699578351905
 20
4.3204971182094676
 30
0.0
 11
-97.555725459395532
 21
4.6684712371658197
 31
0.0
  0
LINE
  5
C6CE3
  8
035
 62
     3
 10
-96.648442835575366
 20
5.575753860986012
 30
0.0
 11
-96.034300812951713
 21
6.1898958836096334
 31
0.0
  0
LINE
  5
C6CE4
  8
035
 62
     3
 10
-97.521861916511156
 20
4.3204971182094676
 30
0.0
 11
-97.173345922406455
 21
4.669013112314186
 31
0.0
  0
LINE
  5
C6CE5
  8
035
 62
     3
 10
-96.552348589357834
 20
5.2900104453627836
 30
0.0
 11
-95.652463151111007
 21
6.1898958836096334
 31
0.0
  0
LINE
  5
C6CE6
  8
035
 62
     3
 10
-97.140928361274021
 20
4.3195930116058694
 30
0.0
 11
-95.270829982268765
 21
6.1896913906111326
 31
0.0
  0
LINE
  5
C6CE7
  8
035
 62
     3
 10
-96.931816425032622
 20
4.1468672860065077
 30
0.0
 11
-94.929703162999743
 21
6.1489805480393862
 31
0.0
  0
LINE
  5
C6CE8
  8
035
 62
     3
 10
-96.95283509237818
 20
3.744010956820258
 30
0.0
 11
-94.646299004069519
 21
6.0505470451288854
 31
0.0
  0
LINE
  5
C6CE9
  8
035
 62
     3
 10
-96.962121863985502
 20
3.3528865233721681
 30
0.0
 11
-94.418345581340859
 21
5.8966628060168338
 31
0.0
  0
LINE
  5
C6CEA
  8
035
 62
     3
 10
-96.724218500671157
 20
3.2089522248458051
 30
0.0
 11
-94.267355379022163
 21
5.6658153464947949
 31
0.0
  0
LINE
  5
C6CEB
  8
035
 62
     3
 10
-96.342380838830422
 20
3.2089522248458051
 30
0.0
 11
-95.022979772043726
 21
4.5283532916325013
 31
0.0
  0
LINE
  5
C6CEC
  8
035
 62
     3
 10
-94.969135470699968
 20
4.5821975929762484
 30
0.0
 11
-94.287360214694175
 21
5.263972848982049
 31
0.0
  0
LINE
  5
C6CED
  8
035
 62
     3
 10
-95.960543176989688
 20
3.2089522248458051
 30
0.0
 11
-94.873526014076333
 21
4.2959693877591141
 31
0.0
  0
LINE
  5
C6CEE
  8
035
 62
     3
 10
-93.333355914920759
 20
5.8361394869147123
 30
0.0
 11
-92.979599518225925
 21
6.1898958836095481
 31
0.0
  0
LINE
  5
C6CEF
  8
035
 62
     3
 10
-95.578705515148926
 20
3.2089522248458051
 30
0.0
 11
-94.892504867759584
 21
3.8951528722351858
 31
0.0
  0
LINE
  5
C6CF0
  8
035
 62
     3
 10
-93.44211961929625
 20
5.3455381206985146
 30
0.0
 11
-92.597761856385176
 21
6.1898958836095481
 31
0.0
  0
LINE
  5
C6CF1
  8
035
 62
     3
 10
-95.19686785330822
 20
3.2089522248458051
 30
0.0
 11
-94.919803156182667
 21
3.4860169219713582
 31
0.0
  0
LINE
  5
C6CF2
  8
035
 62
     3
 10
-93.550883323671698
 20
4.8549367544823001
 30
0.0
 11
-92.215924194544471
 21
6.1898958836095481
 31
0.0
  0
LINE
  5
C6CF3
  8
035
 62
     3
 10
-93.659647028047175
 20
4.3643353882660874
 30
0.0
 11
-91.834086532703722
 21
6.1898958836095481
 31
0.0
  0
LINE
  5
C6CF4
  8
035
 62
     3
 10
-93.768410732422666
 20
3.8737340220498728
 30
0.0
 11
-91.452248870862974
 21
6.1898958836095481
 31
0.0
  0
LINE
  5
C6CF5
  8
035
 62
     3
 10
-93.877174436798128
 20
3.3831326558336601
 30
0.0
 11
-91.244019212192654
 21
6.0162878804391386
 31
0.0
  0
LINE
  5
C6CF6
  8
035
 62
     3
 10
-93.669517205945255
 20
3.2089522248458051
 30
0.0
 11
-91.352782916568117
 21
5.5256865142229419
 31
0.0
  0
LINE
  5
C6CF7
  8
035
 62
     3
 10
-93.287679544104535
 20
3.2089522248458051
 30
0.0
 11
-91.461546620943594
 21
5.0350851480067291
 31
0.0
  0
LINE
  5
C6CF8
  8
035
 62
     3
 10
-92.905841882263786
 20
3.2089522248458051
 30
0.0
 11
-91.57031032531907
 21
4.5444837817905324
 31
0.0
  0
LINE
  5
C6CF9
  8
035
 62
     3
 10
-90.014354965324884
 20
6.1004391417847073
 30
0.0
 11
-89.924898223499994
 21
6.1898958836095819
 31
0.0
  0
LINE
  5
C6CFA
  8
035
 62
     3
 10
-92.524004220423038
 20
3.2089522248458051
 30
0.0
 11
-91.679074029694505
 21
4.0538824155743178
 31
0.0
  0
LINE
  5
C6CFB
  8
035
 62
     3
 10
-90.123118669700347
 20
5.6098377755684927
 30
0.0
 11
-89.543060561659246
 21
6.1898958836095819
 31
0.0
  0
LINE
  5
C6CFC
  8
035
 62
     3
 10
-92.142166558582275
 20
3.2089522248458051
 30
0.0
 11
-91.787837734069996
 21
3.5632810493581211
 31
0.0
  0
LINE
  5
C6CFD
  8
035
 62
     3
 10
-90.231882374075823
 20
5.1192364093522631
 30
0.0
 11
-89.161222899818554
 21
6.1898958836095819
 31
0.0
  0
LINE
  5
C6CFE
  8
035
 62
     3
 10
-90.340646078451286
 20
4.6286350431360663
 30
0.0
 11
-88.779385237977777
 21
6.1898958836095819
 31
0.0
  0
LINE
  5
C6CFF
  8
035
 62
     3
 10
-90.449409782826805
 20
4.1380336769198509
 30
0.0
 11
-88.397547576137043
 21
6.1898958836095819
 31
0.0
  0
LINE
  5
C6D00
  8
035
 62
     3
 10
-90.558173487202282
 20
3.6474323107036208
 30
0.0
 11
-88.04470713644244
 21
6.1608986614634862
 31
0.0
  0
LINE
  5
C6D01
  8
035
 62
     3
 10
-90.614815911219367
 20
3.2089522248457878
 30
0.0
 11
-88.153470840817874
 21
5.6702972952473054
 31
0.0
  0
LINE
  5
C6D02
  8
035
 62
     3
 10
-90.232978249378647
 20
3.2089522248457878
 30
0.0
 11
-88.259173978565173
 21
5.1827564956592731
 31
0.0
  0
LINE
  5
C6D03
  8
035
 62
     3
 10
-89.851140587537927
 20
3.2089522248457878
 30
0.0
 11
-87.593799393000864
 21
5.4662934193828363
 31
0.0
  0
LINE
  5
C6D04
  8
035
 62
     3
 10
-89.469302925697164
 20
3.2089522248457878
 30
0.0
 11
-86.928424807436556
 21
5.7498303431063977
 31
0.0
  0
LINE
  5
C6D05
  8
035
 62
     3
 10
-89.087465263856444
 20
3.2089522248457878
 30
0.0
 11
-88.588525658319895
 21
3.7078918303823309
 31
0.0
  0
LINE
  5
C6D06
  8
035
 62
     3
 10
-88.199885477682315
 20
4.0965320110198906
 30
0.0
 11
-86.263050221872263
 21
6.0333672668299778
 31
0.0
  0
LINE
  5
C6D07
  8
035
 62
     3
 10
-88.705627602015682
 20
3.2089522248457878
 30
0.0
 11
-88.697289362695287
 21
3.2172904641661679
 31
0.0
  0
LINE
  5
C6D08
  8
035
 62
     3
 10
-87.623879329111617
 20
4.2907004977498691
 30
0.0
 11
-85.724683943251932
 21
6.189895883609565
 31
0.0
  0
LINE
  5
C6D09
  8
035
 62
     3
 10
-87.434244541137247
 20
4.0984976238835173
 30
0.0
 11
-85.342846281411184
 21
6.189895883609565
 31
0.0
  0
LINE
  5
C6D0A
  8
035
 62
     3
 10
-87.244609753162877
 20
3.906294750017147
 30
0.0
 11
-84.961008619570464
 21
6.189895883609565
 31
0.0
  0
LINE
  5
C6D0B
  8
035
 62
     3
 10
-87.054974965188535
 20
3.7140918761507771
 30
0.0
 11
-85.648259833080488
 21
5.1208070082587964
 31
0.0
  0
LINE
  5
C6D0C
  8
035
 62
     3
 10
-85.538387135425126
 20
5.2306797059141577
 30
0.0
 11
-84.57917095772973
 21
6.189895883609565
 31
0.0
  0
LINE
  5
C6D0D
  8
035
 62
     3
 10
-86.865340177214165
 20
3.521889002284408
 30
0.0
 11
-85.458625045106118
 21
4.9286041343924261
 31
0.0
  0
LINE
  5
C6D0E
  8
035
 62
     3
 10
-84.873012549860846
 20
5.5142166296377031
 30
0.0
 11
-84.197333295888996
 21
6.189895883609565
 31
0.0
  0
LINE
  5
C6D0F
  8
035
 62
     3
 10
-86.675705389239781
 20
3.329686128418055
 30
0.0
 11
-85.268990257131748
 21
4.7364012605260557
 31
0.0
  0
LINE
  5
C6D10
  8
035
 62
     3
 10
-84.207637964296552
 20
5.7977535533612494
 30
0.0
 11
-83.815495634048219
 21
6.189895883609565
 31
0.0
  0
LINE
  5
C6D11
  8
035
 62
     3
 10
-86.414601630971276
 20
3.2089522248458051
 30
0.0
 11
-85.079355469157363
 21
4.5441983866597031
 31
0.0
  0
LINE
  5
C6D12
  8
035
 62
     3
 10
-83.542263378732287
 20
6.081290477084794
 30
0.0
 11
-83.433657972207527
 21
6.189895883609565
 31
0.0
  0
LINE
  5
C6D13
  8
035
 62
     3
 10
-86.032763969130585
 20
3.2089522248458051
 30
0.0
 11
-84.889720681183036
 21
4.3519955127933336
 31
0.0
  0
LINE
  5
C6D14
  8
035
 62
     3
 10
-85.650926307289836
 20
3.2089522248458051
 30
0.0
 11
-84.700085893208652
 21
4.159792638926981
 31
0.0
  0
LINE
  5
C6D15
  8
035
 62
     3
 10
-85.269088645449074
 20
3.2089522248458051
 30
0.0
 11
-84.510451105234267
 21
3.9675897650606111
 31
0.0
  0
LINE
  5
C6D16
  8
035
 62
     3
 10
-84.88725098360834
 20
3.2089522248458051
 30
0.0
 11
-84.320816317259897
 21
3.7753868911942421
 31
0.0
  0
LINE
  5
C6D17
  8
035
 62
     3
 10
-84.505413321767634
 20
3.2089522248458051
 30
0.0
 11
-84.131181529285513
 21
3.583184017327889
 31
0.0
  0
LINE
  5
C6D18
  8
035
 62
     3
 10
-84.123575659926871
 20
3.2089522248458051
 30
0.0
 11
-83.941546741311143
 21
3.3909811434615191
 31
0.0
  0
LINE
  5
C6D19
  8
035
 62
     3
 10
-96.613061305663678
 20
3.2089522248458051
 30
0.0
 11
-96.965390148354302
 21
3.5612810675364441
 31
0.0
  0
LINE
  5
C6D1A
  8
035
 62
     3
 10
-98.675261856174089
 20
5.2711527753562084
 30
0.0
 11
-99.594004964427455
 21
6.1898958836096334
 31
0.0
  0
LINE
  5
C6D1B
  8
035
 62
     3
 10
-97.72460619902732
 20
4.3204971182094676
 30
0.0
 11
-98.07258031798365
 21
4.6684712371658197
 31
0.0
  0
LINE
  5
C6D1C
  8
035
 62
     3
 10
-98.106443860868026
 20
4.3204971182094676
 30
0.0
 11
-98.454417979824399
 21
4.6684712371658197
 31
0.0
  0
LINE
  5
C6D1D
  8
035
 62
     3
 10
-98.744551977686982
 20
4.9586052350283722
 30
0.0
 11
-99.975842626268175
 21
6.1898958836096334
 31
0.0
  0
LINE
  5
C6D1E
  8
035
 62
     3
 10
-98.488281522708803
 20
4.3204971182094676
 30
0.0
 11
-100.3576802881089
 21
6.1898958836096334
 31
0.0
  0
LINE
  5
C6D1F
  8
035
 62
     3
 10
-98.870119184549523
 20
4.3204971182094676
 30
0.0
 11
-100.5606371063987
 21
6.0110150400586599
 31
0.0
  0
LINE
  5
C6D20
  8
035
 62
     3
 10
-98.952422342225574
 20
4.0209626140447794
 30
0.0
 11
-100.62992722791159
 21
5.69846749973079
 31
0.0
  0
LINE
  5
C6D21
  8
035
 62
     3
 10
-99.021712463738425
 20
3.708415073716909
 30
0.0
 11
-100.6992173494245
 21
5.3859199594029361
 31
0.0
  0
LINE
  5
C6D22
  8
035
 62
     3
 10
-101.2329689039609
 20
5.9196715139393881
 30
0.0
 11
-101.5031932736311
 21
6.1898958836096334
 31
0.0
  0
LINE
  5
C6D23
  8
035
 62
     3
 10
-99.091002585251275
 20
3.3958675333890391
 30
0.0
 11
-100.76850747093729
 21
5.0733724190750671
 31
0.0
  0
LINE
  5
C6D24
  8
035
 62
     3
 10
-101.3022590254737
 20
5.6071239736115022
 30
0.0
 11
-101.8850309354718
 21
6.1898958836096334
 31
0.0
  0
LINE
  5
C6D25
  8
035
 62
     3
 10
-99.285924938548845
 20
3.2089522248457878
 30
0.0
 11
-100.8377975924502
 21
4.7608248787471812
 31
0.0
  0
LINE
  5
C6D26
  8
035
 62
     3
 10
-101.5216326826216
 20
5.444659968918617
 30
0.0
 11
-102.26686859731259
 21
6.1898958836096334
 31
0.0
  0
LINE
  5
C6D27
  8
035
 62
     3
 10
-99.667762600389565
 20
3.2089522248457878
 30
0.0
 11
-100.90708771396309
 21
4.4482773384193113
 31
0.0
  0
LINE
  5
C6D28
  8
035
 62
     3
 10
-101.90347034446241
 20
5.444659968918617
 30
0.0
 11
-102.6487062591533
 21
6.1898958836096334
 31
0.0
  0
LINE
  5
C6D29
  8
035
 62
     3
 10
-100.0496002622303
 20
3.2089522248457878
 30
0.0
 11
-100.9763778354759
 21
4.1357297980914582
 31
0.0
  0
LINE
  5
C6D2A
  8
035
 62
     3
 10
-102.2853080063031
 20
5.444659968918617
 30
0.0
 11
-103.03054392099411
 21
6.1898958836096334
 31
0.0
  0
LINE
  5
C6D2B
  8
035
 62
     3
 10
-100.43143792407101
 20
3.2089522248457878
 30
0.0
 11
-101.04566795698879
 21
3.8231822577635879
 31
0.0
  0
LINE
  5
C6D2C
  8
035
 62
     3
 10
-102.6671456681438
 20
5.444659968918617
 30
0.0
 11
-103.4123815828348
 21
6.1898958836096334
 31
0.0
  0
LINE
  5
C6D2D
  8
035
 62
     3
 10
-100.8132755859117
 20
3.2089522248457878
 30
0.0
 11
-101.1149580785017
 21
3.5106347174357349
 31
0.0
  0
LINE
  5
C6D2E
  8
035
 62
     3
 10
-103.04898332998459
 20
5.444659968918617
 30
0.0
 11
-103.7942192446755
 21
6.1898958836096334
 31
0.0
  0
LINE
  5
C6D2F
  8
035
 62
     3
 10
-103.3192544181603
 20
5.3330933952536181
 30
0.0
 11
-104.17605690651629
 21
6.1898958836096334
 31
0.0
  0
LINE
  5
C6D30
  8
035
 62
     3
 10
-103.38854453967321
 20
5.020545854925782
 30
0.0
 11
-104.557894568357
 21
6.1898958836096334
 31
0.0
  0
LINE
  5
C6D31
  8
035
 62
     3
 10
-103.457834661186
 20
4.7079983145979289
 30
0.0
 11
-104.93973223019771
 21
6.1898958836096334
 31
0.0
  0
LINE
  5
C6D32
  8
035
 62
     3
 10
-103.527124782699
 20
4.3954507742700759
 30
0.0
 11
-105.3215698920385
 21
6.1898958836096334
 31
0.0
  0
LINE
  5
C6D33
  8
035
 62
     3
 10
-103.5964149042118
 20
4.0829032339422406
 30
0.0
 11
-105.7034075538792
 21
6.1898958836096334
 31
0.0
  0
LINE
  5
C6D34
  8
035
 62
     3
 10
-103.66570502572471
 20
3.7703556936143361
 30
0.0
 11
-106.08524521571999
 21
6.1898958836096334
 31
0.0
  0
LINE
  5
C6D35
  8
035
 62
     3
 10
-103.7349951472376
 20
3.4578081532865008
 30
0.0
 11
-105.4125000329236
 21
5.1353130389724777
 31
0.0
  0
LINE
  5
C6D36
  8
035
 62
     3
 10
-105.72184696286971
 20
5.444659968918617
 30
0.0
 11
-106.4670828775607
 21
6.1898958836096334
 31
0.0
  0
LINE
  5
C6D37
  8
035
 62
     3
 10
-103.8679768806377
 20
3.2089522248458562
 30
0.0
 11
-105.4817901544364
 21
4.8227654986446247
 31
0.0
  0
LINE
  5
C6D38
  8
035
 62
     3
 10
-106.1036846247104
 20
5.444659968918617
 30
0.0
 11
-106.8489205394014
 21
6.1898958836096334
 31
0.0
  0
LINE
  5
C6D39
  8
035
 62
     3
 10
-104.2498145424784
 20
3.2089522248458562
 30
0.0
 11
-105.5510802759493
 21
4.5102179583167716
 31
0.0
  0
LINE
  5
C6D3A
  8
035
 62
     3
 10
-106.4855222865511
 20
5.444659968918617
 30
0.0
 11
-107.076084717482
 21
6.035222399849518
 31
0.0
  0
LINE
  5
C6D3B
  8
035
 62
     3
 10
-104.6316522043191
 20
3.2089522248458562
 30
0.0
 11
-105.6203703974622
 21
4.1976704179889186
 31
0.0
  0
LINE
  5
C6D3C
  8
035
 62
     3
 10
-107.5893144275359
 20
6.1666144480626341
 30
0.0
 11
-107.6125958630829
 21
6.1898958836096174
 31
0.0
  0
LINE
  5
C6D3D
  8
035
 62
     3
 10
-106.86735994839189
 20
5.444659968918617
 30
0.0
 11
-107.1453748389949
 21
5.722674859521649
 31
0.0
  0
LINE
  5
C6D3E
  8
035
 62
     3
 10
-105.0134898661599
 20
3.2089522248458562
 30
0.0
 11
-105.6896605189751
 21
3.8851228776610149
 31
0.0
  0
LINE
  5
C6D3F
  8
035
 62
     3
 10
-107.6586045490488
 20
5.8540669077347474
 30
0.0
 11
-107.99443352492359
 21
6.1898958836096174
 31
0.0
  0
LINE
  5
C6D40
  8
035
 62
     3
 10
-105.39532752800061
 20
3.2089522248458562
 30
0.0
 11
-105.7589506404879
 21
3.5725753373331619
 31
0.0
  0
LINE
  5
C6D41
  8
035
 62
     3
 10
-107.7278946705616
 20
5.5415193674068943
 30
0.0
 11
-108.3762711867644
 21
6.1898958836096174
 31
0.0
  0
LINE
  5
C6D42
  8
035
 62
     3
 10
-105.7771651898414
 20
3.2089522248458562
 30
0.0
 11
-105.8282407620008
 21
3.2600277970053089
 31
0.0
  0
LINE
  5
C6D43
  8
035
 62
     3
 10
-107.7971847920745
 20
5.2289718270790413
 30
0.0
 11
-108.7581088486051
 21
6.1898958836096174
 31
0.0
  0
LINE
  5
C6D44
  8
035
 62
     3
 10
-107.8664749135874
 20
4.9164242867511891
 30
0.0
 11
-109.1399465104458
 21
6.1898958836096174
 31
0.0
  0
LINE
  5
C6D45
  8
035
 62
     3
 10
-107.9357650351003
 20
4.6038767464233361
 30
0.0
 11
-109.5217841722865
 21
6.1898958836096174
 31
0.0
  0
LINE
  5
C6D46
  8
035
 62
     3
 10
-108.0050551566132
 20
4.2913292060954493
 30
0.0
 11
-109.67832134521829
 21
5.9645953947005381
 31
0.0
  0
LINE
  5
C6D47
  8
035
 62
     3
 10
-108.074345278126
 20
3.9787816657675958
 30
0.0
 11
-109.7476114667311
 21
5.6520478543727011
 31
0.0
  0
LINE
  5
C6D48
  8
035
 62
     3
 10
-108.23186537987149
 20
3.7544641056723922
 30
0.0
 11
-109.81690158824399
 21
5.3395003140448489
 31
0.0
  0
LINE
  5
C6D49
  8
035
 62
     3
 10
-108.4674968942431
 20
3.608257958203168
 30
0.0
 11
-109.8861917097569
 21
5.0269527737170128
 31
0.0
  0
LINE
  5
C6D4A
  8
035
 62
     3
 10
-108.7252521362114
 20
3.4841755383307969
 30
0.0
 11
-109.95548183126979
 21
4.7144052333891766
 31
0.0
  0
LINE
  5
C6D4B
  8
035
 62
     3
 10
-109.0078270096099
 20
3.3849127498884708
 30
0.0
 11
-110.0247719527827
 21
4.4018576930612898
 31
0.0
  0
LINE
  5
C6D4C
  8
035
 62
     3
 10
-109.3102160670833
 20
3.305464145521201
 30
0.0
 11
-110.1459810757661
 21
4.1412291542039412
 31
0.0
  0
LINE
  5
C6D4D
  8
035
 62
     3
 10
-111.94609256548139
 20
5.9413406439192524
 30
0.0
 11
-112.1946478051717
 21
6.1898958836096174
 31
0.0
  0
LINE
  5
C6D4E
  8
035
 62
     3
 10
-109.6270622842185
 20
3.240472700815606
 30
0.0
 11
-110.38182420883339
 21
3.9952346254305739
 31
0.0
  0
LINE
  5
C6D4F
  8
035
 62
     3
 10
-112.0153826869942
 20
5.6287931035913816
 30
0.0
 11
-112.5764854670125
 21
6.1898958836096174
 31
0.0
  0
LINE
  5
C6D50
  8
035
 62
     3
 10
-109.9600312549295
 20
3.1916040096859288
 30
0.0
 11
-110.67554994914551
 21
3.907122703901885
 31
0.0
  0
LINE
  5
C6D51
  8
035
 62
     3
 10
-112.08467280850709
 20
5.3162455632635117
 30
0.0
 11
-112.95832312885319
 21
6.1898958836096174
 31
0.0
  0
LINE
  5
C6D52
  8
035
 62
     3
 10
-110.306216975018
 20
3.1559520679337161
 30
0.0
 11
-111.01583304788799
 21
3.8655681408037328
 31
0.0
  0
LINE
  5
C6D53
  8
035
 62
     3
 10
-112.15396293002
 20
5.0036980229356418
 30
0.0
 11
-113.340160790694
 21
6.1898958836096174
 31
0.0
  0
LINE
  5
C6D54
  8
035
 62
     3
 10
-110.66310066100689
 20
3.1309980920817821
 30
0.0
 11
-111.4029055697653
 21
3.8708030008402909
 31
0.0
  0
LINE
  5
C6D55
  8
035
 62
     3
 10
-112.22325305153279
 20
4.691150482607739
 30
0.0
 11
-113.72199845253471
 21
6.1898958836096174
 31
0.0
  0
LINE
  5
C6D56
  8
035
 62
     3
 10
-111.0316546162849
 20
3.1177143855190388
 30
0.0
 11
-111.87645555302009
 21
3.9625153222543159
 31
0.0
  0
LINE
  5
C6D57
  8
035
 62
     3
 10
-112.2925431730457
 20
4.3786029422798523
 30
0.0
 11
-113.96582333838479
 21
6.0518831076190533
 31
0.0
  0
LINE
  5
C6D58
  8
035
 62
     3
 10
-111.41305497107101
 20
3.1172770784644541
 30
0.0
 11
-114.0351134598977
 21
5.7393355672912012
 31
0.0
  0
LINE
  5
C6D59
  8
035
 62
     3
 10
-111.8087459043527
 20
3.131130349905427
 30
0.0
 11
-114.10440358141059
 21
5.4267880269633473
 31
0.0
  0
LINE
  5
C6D5A
  8
035
 62
     3
 10
-114.866905802177
 20
6.1892902477297378
 30
0.0
 11
-114.86751143805689
 21
6.1898958836096174
 31
0.0
  0
LINE
  5
C6D5B
  8
035
 62
     3
 10
-112.2205328597373
 20
3.1610796434493378
 30
0.0
 11
-114.1736937029235
 21
5.1142404866354951
 31
0.0
  0
LINE
  5
C6D5C
  8
035
 62
     3
 10
-114.93619592368989
 20
5.8767427074019016
 30
0.0
 11
-115.2493490998976
 21
6.1898958836096174
 31
0.0
  0
LINE
  5
C6D5D
  8
035
 62
     3
 10
-112.6513507175187
 20
3.2100598393899218
 30
0.0
 11
-114.24298382443629
 21
4.8016929463075906
 31
0.0
  0
LINE
  5
C6D5E
  8
035
 62
     3
 10
-115.103212642782
 20
5.6619217646532229
 30
0.0
 11
-115.63118676173841
 21
6.1898958836096174
 31
0.0
  0
LINE
  5
C6D5F
  8
035
 62
     3
 10
-113.11943676931431
 20
3.296308229344779
 30
0.0
 11
-114.3122739459492
 21
4.4891454059797384
 31
0.0
  0
LINE
  5
C6D60
  8
035
 62
     3
 10
-115.4850503046227
 20
5.6619217646532229
 30
0.0
 11
-116.0130244235791
 21
6.1898958836096174
 31
0.0
  0
LINE
  5
C6D61
  8
035
 62
     3
 10
-113.6532843618162
 20
3.4483181600059392
 30
0.0
 11
-114.38156406746209
 21
4.1765978656518854
 31
0.0
  0
LINE
  5
C6D62
  8
035
 62
     3
 10
-115.86688796646339
 20
5.6619217646532229
 30
0.0
 11
-116.3948620854198
 21
6.1898958836096174
 31
0.0
  0
LINE
  5
C6D63
  8
035
 62
     3
 10
-115.44210707597119
 20
4.8553032123202771
 30
0.0
 11
-115.4602149773569
 21
4.8734111137059379
 31
0.0
  0
LINE
  5
C6D64
  8
035
 62
     3
 10
-116.2487256283041
 20
5.6619217646532229
 30
0.0
 11
-116.77669974726059
 21
6.1898958836096174
 31
0.0
  0
LINE
  5
C6D65
  8
035
 62
     3
 10
-115.5113971974841
 20
4.542755671992424
 30
0.0
 11
-115.8420526391976
 21
4.8734111137059379
 31
0.0
  0
LINE
  5
C6D66
  8
035
 62
     3
 10
-116.63056329014491
 20
5.6619217646532229
 30
0.0
 11
-117.1585374091013
 21
6.1898958836096174
 31
0.0
  0
LINE
  5
C6D67
  8
035
 62
     3
 10
-115.87591618208199
 20
4.5254369947496196
 30
0.0
 11
-116.2238903010383
 21
4.8734111137059379
 31
0.0
  0
LINE
  5
C6D68
  8
035
 62
     3
 10
-117.0124009519857
 20
5.6619217646532229
 30
0.0
 11
-117.5403750709421
 21
6.1898958836096174
 31
0.0
  0
LINE
  5
C6D69
  8
035
 62
     3
 10
-115.4212267742799
 20
3.6889099251068131
 30
0.0
 11
-115.4692431929753
 21
3.736926343802164
 31
0.0
  0
LINE
  5
C6D6A
  8
035
 62
     3
 10
-117.3942386138264
 20
5.6619217646532229
 30
0.0
 11
-117.9222127327828
 21
6.1898958836096174
 31
0.0
  0
LINE
  5
C6D6B
  8
035
 62
     3
 10
-116.2577538439228
 20
4.5254369947496196
 30
0.0
 11
-116.6057279628791
 21
4.8734111137059379
 31
0.0
  0
LINE
  5
C6D6C
  8
035
 62
     3
 10
-115.49051689579279
 20
3.3763623847789761
 30
0.0
 11
-115.8510808548161
 21
3.736926343802164
 31
0.0
  0
LINE
  5
C6D6D
  8
035
 62
     3
 10
-117.77607627566709
 20
5.6619217646532229
 30
0.0
 11
-118.3040503946235
 21
6.1898958836096174
 31
0.0
  0
LINE
  5
C6D6E
  8
035
 62
     3
 10
-116.63959150576351
 20
4.5254369947496196
 30
0.0
 11
-116.98756562471981
 21
4.8734111137059379
 31
0.0
  0
LINE
  5
C6D6F
  8
035
 62
     3
 10
-115.7049443977005
 20
3.2089522248458899
 30
0.0
 11
-116.2329185166568
 21
3.736926343802164
 31
0.0
  0
LINE
  5
C6D70
  8
035
 62
     3
 10
-118.1579139375078
 20
5.6619217646532061
 30
0.0
 11
-118.68588805646419
 21
6.1898958836096174
 31
0.0
  0
LINE
  5
C6D71
  8
035
 62
     3
 10
-117.0214291676042
 20
4.5254369947496196
 30
0.0
 11
-117.3694032865606
 21
4.8734111137059379
 31
0.0
  0
LINE
  5
C6D72
  8
035
 62
     3
 10
-116.08678205954121
 20
3.2089522248458899
 30
0.0
 11
-116.6147561784975
 21
3.736926343802164
 31
0.0
  0
LINE
  5
C6D73
  8
035
 62
     3
 10
-118.52660557773071
 20
5.6487757430353627
 30
0.0
 11
-119.067725718305
 21
6.1898958836096174
 31
0.0
  0
LINE
  5
C6D74
  8
035
 62
     3
 10
-117.403266829445
 20
4.5254369947496196
 30
0.0
 11
-117.7512409484013
 21
4.8734111137059379
 31
0.0
  0
LINE
  5
C6D75
  8
035
 62
     3
 10
-116.468619721382
 20
3.2089522248458899
 30
0.0
 11
-116.99659384033821
 21
3.736926343802164
 31
0.0
  0
LINE
  5
C6D76
  8
035
 62
     3
 10
-118.5958956992436
 20
5.3362282027075114
 30
0.0
 11
-119.4495633801457
 21
6.1898958836096174
 31
0.0
  0
LINE
  5
C6D77
  8
035
 62
     3
 10
-117.78510449128569
 20
4.5254369947496196
 30
0.0
 11
-118.13307861024199
 21
4.8734111137059379
 31
0.0
  0
LINE
  5
C6D78
  8
035
 62
     3
 10
-116.8504573832227
 20
3.2089522248458899
 30
0.0
 11
-117.378431502179
 21
3.736926343802164
 31
0.0
  0
LINE
  5
C6D79
  8
035
 62
     3
 10
-118.66518582075661
 20
5.0236806623796921
 30
0.0
 11
-119.8314010419865
 21
6.1898958836096174
 31
0.0
  0
LINE
  5
C6D7A
  8
035
 62
     3
 10
-118.1669421531264
 20
4.5254369947496196
 30
0.0
 11
-118.5149162720827
 21
4.8734111137059379
 31
0.0
  0
LINE
  5
C6D7B
  8
035
 62
     3
 10
-117.2322950450634
 20
3.2089522248458899
 30
0.0
 11
-117.7602691640197
 21
3.736926343802164
 31
0.0
  0
LINE
  5
C6D7C
  8
035
 62
     3
 10
-118.5487798149672
 20
4.5254369947496196
 30
0.0
 11
-120.2132387038272
 21
6.1898958836096174
 31
0.0
  0
LINE
  5
C6D7D
  8
035
 62
     3
 10
-117.6141327069041
 20
3.2089522248458899
 30
0.0
 11
-118.14210682586049
 21
3.736926343802164
 31
0.0
  0
LINE
  5
C6D7E
  8
035
 62
     3
 10
-118.80376606378221
 20
4.3985855817239177
 30
0.0
 11
-120.4812709494682
 21
6.0760904674099123
 31
0.0
  0
LINE
  5
C6D7F
  8
035
 62
     3
 10
-117.99597036874491
 20
3.2089522248458899
 30
0.0
 11
-118.5239444877012
 21
3.736926343802164
 31
0.0
  0
LINE
  5
C6D80
  8
035
 62
     3
 10
-118.8730561852951
 20
4.086038041396014
 30
0.0
 11
-120.550561070981
 21
5.7635429270820424
 31
0.0
  0
LINE
  5
C6D81
  8
035
 62
     3
 10
-118.3778080305857
 20
3.2089522248458899
 30
0.0
 11
-118.90578214954191
 21
3.736926343802164
 31
0.0
  0
LINE
  5
C6D82
  8
035
 62
     3
 10
-118.94234630680791
 20
3.7734905010680762
 30
0.0
 11
-120.6198511924939
 21
5.4509953867541379
 31
0.0
  0
LINE
  5
C6D83
  8
035
 62
     3
 10
-118.7596456924264
 20
3.2089522248458899
 30
0.0
 11
-120.6891413140068
 21
5.1384478464262848
 31
0.0
  0
LINE
  5
C6D84
  8
035
 62
     3
 10
-121.52789375684981
 20
5.9772002892693497
 30
0.0
 11
-121.7405893511902
 21
6.1898958836096174
 31
0.0
  0
LINE
  5
C6D85
  8
035
 62
     3
 10
-119.14148335426709
 20
3.2089522248458899
 30
0.0
 11
-120.7584314355197
 21
4.8259003060984149
 31
0.0
  0
LINE
  5
C6D86
  8
035
 62
     3
 10
-121.5971838783627
 20
5.6646527489414797
 30
0.0
 11
-122.1224270130309
 21
6.1898958836096174
 31
0.0
  0
LINE
  5
C6D87
  8
035
 62
     3
 10
-119.5233210161078
 20
3.2089522248458899
 30
0.0
 11
-120.8277215570325
 21
4.5133527657705619
 31
0.0
  0
LINE
  5
C6D88
  8
035
 62
     3
 10
-121.66647399987561
 20
5.3521052086136267
 30
0.0
 11
-122.50426467487161
 21
6.1898958836096174
 31
0.0
  0
LINE
  5
C6D89
  8
035
 62
     3
 10
-119.90515867794851
 20
3.2089522248458899
 30
0.0
 11
-120.8970116785454
 21
4.200805225442692
 31
0.0
  0
LINE
  5
C6D8A
  8
035
 62
     3
 10
-121.7357641213884
 20
5.0395576682857568
 30
0.0
 11
-122.8861023367123
 21
6.1898958836096174
 31
0.0
  0
LINE
  5
C6D8B
  8
035
 62
     3
 10
-120.2869963397893
 20
3.2089522248458899
 30
0.0
 11
-120.9663018000583
 21
3.8882576851147892
 31
0.0
  0
LINE
  5
C6D8C
  8
035
 62
     3
 10
-121.80505424290131
 20
4.72701012795787
 30
0.0
 11
-123.2679399985531
 21
6.1898958836096174
 31
0.0
  0
LINE
  5
C6D8D
  8
035
 62
     3
 10
-120.6688340016301
 20
3.2089522248458899
 30
0.0
 11
-121.0355919215711
 21
3.5757101447869362
 31
0.0
  0
LINE
  5
C6D8E
  8
035
 62
     3
 10
-121.8743443644142
 20
4.4144625876300001
 30
0.0
 11
-123.5518492501002
 21
6.0919674733159939
 31
0.0
  0
LINE
  5
C6D8F
  8
035
 62
     3
 10
-121.05067166347079
 20
3.2089522248458899
 30
0.0
 11
-121.104882043084
 21
3.2631626044590658
 31
0.0
  0
LINE
  5
C6D90
  8
035
 62
     3
 10
-121.94363448592711
 20
4.1019150473021471
 30
0.0
 11
-123.621139371613
 21
5.7794199329881577
 31
0.0
  0
LINE
  5
C6D91
  8
035
 62
     3
 10
-122.0129246074399
 20
3.789367506974278
 30
0.0
 11
-123.690429493126
 21
5.4668723926603233
 31
0.0
  0
LINE
  5
C6D92
  8
035
 62
     3
 10
-122.08221472895281
 20
3.476819966646425
 30
0.0
 11
-123.7597196146388
 21
5.1543248523324703
 31
0.0
  0
LINE
  5
C6D93
  8
035
 62
     3
 10
-122.196184648993
 20
3.2089522248458731
 30
0.0
 11
-124.0004708074383
 21
5.0132383832911858
 31
0.0
  0
LINE
  5
C6D94
  8
035
 62
     3
 10
-122.5780223108337
 20
3.2089522248458731
 30
0.0
 11
-125.28893638553259
 21
5.9198662995447453
 31
0.0
  0
LINE
  5
C6D95
  8
035
 62
     3
 10
-122.95985997267439
 20
3.2089522248458731
 30
0.0
 11
-125.9408036314382
 21
6.1898958836096174
 31
0.0
  0
LINE
  5
C6D96
  8
035
 62
     3
 10
-123.3416976345152
 20
3.2089522248458731
 30
0.0
 11
-126.32264129327891
 21
6.1898958836096174
 31
0.0
  0
LINE
  5
C6D97
  8
035
 62
     3
 10
-123.72353529635591
 20
3.2089522248458731
 30
0.0
 11
-126.7044789551197
 21
6.1898958836096174
 31
0.0
  0
LINE
  5
C6D98
  8
035
 62
     3
 10
-124.1053729581967
 20
3.2089522248458731
 30
0.0
 11
-127.0863166169604
 21
6.1898958836096174
 31
0.0
  0
LINE
  5
C6D99
  8
035
 62
     3
 10
-124.6372375678725
 20
3.3589791726809062
 30
0.0
 11
-127.46815427880119
 21
6.1898958836096174
 31
0.0
  0
LINE
  5
C6D9A
  8
035
 62
     3
 10
-126.37279658281091
 20
4.7127005257787093
 30
0.0
 11
-127.8499919406419
 21
6.1898958836096174
 31
0.0
  0
LINE
  5
C6D9B
  8
035
 62
     3
 10
-126.4420867043238
 20
4.4001529854508563
 30
0.0
 11
-128.1195915900098
 21
6.0776578711368661
 31
0.0
  0
LINE
  5
C6D9C
  8
035
 62
     3
 10
-126.51137682583671
 20
4.0876054451230033
 30
0.0
 11
-128.1888817115227
 21
5.765110330808997
 31
0.0
  0
LINE
  5
C6D9D
  8
035
 62
     3
 10
-126.5806669473496
 20
3.7750579047951498
 30
0.0
 11
-128.25817183303559
 21
5.452562790481144
 31
0.0
  0
LINE
  5
C6D9E
  8
035
 62
     3
 10
-126.64995706886251
 20
3.462510364467263
 30
0.0
 11
-128.32746195454851
 21
5.1400152501532403
 31
0.0
  0
LINE
  5
C6D9F
  8
035
 62
     3
 10
-126.77823659108179
 20
3.2089522248458562
 30
0.0
 11
-128.39675207606129
 21
4.8274677098253873
 31
0.0
  0
LINE
  5
C6DA0
  8
035
 62
     3
 10
-127.1600742529226
 20
3.2089522248458562
 30
0.0
 11
-128.46604219757421
 21
4.5149201694975174
 31
0.0
  0
LINE
  5
C6DA1
  8
035
 62
     3
 10
-127.5419119147633
 20
3.2089522248458562
 30
0.0
 11
-128.53533231908699
 21
4.2023726291696644
 31
0.0
  0
LINE
  5
C6DA2
  8
035
 62
     3
 10
-127.923749576604
 20
3.2089522248458562
 30
0.0
 11
-128.60462244059991
 21
3.889825088841794
 31
0.0
  0
LINE
  5
C6DA3
  8
035
 62
     3
 10
-128.30558723844479
 20
3.2089522248458562
 30
0.0
 11
-128.6739125621128
 21
3.5772775485139068
 31
0.0
  0
LINE
  5
C6DA4
  8
035
 62
     3
 10
-128.68742490028549
 20
3.2089522248458562
 30
0.0
 11
-128.7432026836257
 21
3.2647300081860369
 31
0.0
  0
LINE
  5
C6DA5
  8
035
 62
     3
 10
-96.231223643822929
 20
3.2089522248458051
 30
0.0
 11
-96.940841439738634
 21
3.9185700207615151
 31
0.0
  0
LINE
  5
C6DA6
  8
035
 62
     3
 10
-98.605971734661182
 20
5.5837003156840259
 30
0.0
 11
-99.212167302586721
 21
6.1898958836096334
 31
0.0
  0
LINE
  5
C6DA7
  8
035
 62
     3
 10
-97.342768537186572
 20
4.3204971182094676
 30
0.0
 11
-97.690742656142945
 21
4.6684712371658197
 31
0.0
  0
LINE
  5
C6DA8
  8
035
 62
     3
 10
-95.849385981982195
 20
3.2089522248458051
 30
0.0
 11
-97.308904994302225
 21
4.6684712371658197
 31
0.0
  0
LINE
  5
C6DA9
  8
035
 62
     3
 10
-98.302355521789593
 20
5.6619217646532229
 30
0.0
 11
-98.830329640746015
 21
6.1898958836096334
 31
0.0
  0
LINE
  5
C6DAA
  8
035
 62
     3
 10
-95.467548320141489
 20
3.2089522248458051
 30
0.0
 11
-96.984585575061033
 21
4.7259894797653912
 31
0.0
  0
LINE
  5
C6DAB
  8
035
 62
     3
 10
-97.920517859948887
 20
5.6619217646532229
 30
0.0
 11
-98.448491978905267
 21
6.1898958836096334
 31
0.0
  0
LINE
  5
C6DAC
  8
035
 62
     3
 10
-95.085710658300727
 20
3.2089522248458051
 30
0.0
 11
-96.740957636544096
 21
4.8641992030891661
 31
0.0
  0
LINE
  5
C6DAD
  8
035
 62
     3
 10
-97.538680198108111
 20
5.6619217646532229
 30
0.0
 11
-98.066654317064518
 21
6.1898958836096334
 31
0.0
  0
LINE
  5
C6DAE
  8
035
 62
     3
 10
-94.914728699623311
 20
3.4198079280091429
 30
0.0
 11
-96.575214785996877
 21
5.0802940143826918
 31
0.0
  0
LINE
  5
C6DAF
  8
035
 62
     3
 10
-97.156842536267405
 20
5.6619217646532229
 30
0.0
 11
-97.684816655223784
 21
6.1898958836096334
 31
0.0
  0
LINE
  5
C6DB0
  8
035
 62
     3
 10
-94.900068663499383
 20
3.7869855537259429
 30
0.0
 11
-96.590830025266996
 21
5.4777469154935572
 31
0.0
  0
LINE
  5
C6DB1
  8
035
 62
     3
 10
-96.738496525139198
 20
5.6254134153657516
 30
0.0
 11
-97.302978993383064
 21
6.1898958836096334
 31
0.0
  0
LINE
  5
C6DB2
  8
035
 62
     3
 10
-94.875113040297464
 20
4.1438675923647299
 30
0.0
 11
-96.921141331542316
 21
6.1898958836096334
 31
0.0
  0
LINE
  5
C6DB3
  8
035
 62
     3
 10
-93.558360010937804
 20
3.2089522248458051
 30
0.0
 11
-93.850928447779424
 21
3.5015206616874219
 31
0.0
  0
LINE
  5
C6DB4
  8
035
 62
     3
 10
-94.944496635760501
 20
4.5950888496684943
 30
0.0
 11
-96.53930366970161
 21
6.1898958836096334
 31
0.0
  0
LINE
  5
C6DB5
  8
035
 62
     3
 10
-93.176522349097041
 20
3.2089522248458051
 30
0.0
 11
-93.781638326266517
 21
3.8140682020153092
 31
0.0
  0
LINE
  5
C6DB6
  8
035
 62
     3
 10
-94.710395049216615
 20
4.7428249249653636
 30
0.0
 11
-96.157466007860805
 21
6.1898958836096334
 31
0.0
  0
LINE
  5
C6DB7
  8
035
 62
     3
 10
-92.794684687256279
 20
3.2089522248458051
 30
0.0
 11
-93.712348204753653
 21
4.1266157423431791
 31
0.0
  0
LINE
  5
C6DB8
  8
035
 62
     3
 10
-94.508091781483131
 20
4.9223593190726449
 30
0.0
 11
-95.775628346020099
 21
6.1898958836096334
 31
0.0
  0
LINE
  5
C6DB9
  8
035
 62
     3
 10
-92.412847025415573
 20
3.2089522248458051
 30
0.0
 11
-93.643058083240817
 21
4.4391632826710321
 31
0.0
  0
LINE
  5
C6DBA
  8
035
 62
     3
 10
-94.346020451787695
 20
5.1421256512179214
 30
0.0
 11
-95.393790684179379
 21
6.1898958836096334
 31
0.0
  0
LINE
  5
C6DBB
  8
035
 62
     3
 10
-92.031009363574839
 20
3.2089522248458051
 30
0.0
 11
-93.573767961727924
 21
4.7517108229988851
 31
0.0
  0
LINE
  5
C6DBC
  8
035
 62
     3
 10
-94.24335226951132
 20
5.4212951307822923
 30
0.0
 11
-94.981921626520815
 21
6.159864487791789
 31
0.0
  0
LINE
  5
C6DBD
  8
035
 62
     3
 10
-91.826972954529055
 20
3.3867534776407431
 30
0.0
 11
-93.50447784021506
 21
5.0642583633267382
 31
0.0
  0
LINE
  5
C6DBE
  8
035
 62
     3
 10
-91.757682833016204
 20
3.6993010179686481
 30
0.0
 11
-93.435187718702167
 21
5.376805903654641
 31
0.0
  0
LINE
  5
C6DBF
  8
035
 62
     3
 10
-91.68839271150334
 20
4.0118485582965011
 30
0.0
 11
-93.365897597189317
 21
5.6893534439824931
 31
0.0
  0
LINE
  5
C6DC0
  8
035
 62
     3
 10
-90.503658716211859
 20
3.2089522248457878
 30
0.0
 11
-90.627849702994155
 21
3.3331432116281259
 31
0.0
  0
LINE
  5
C6DC1
  8
035
 62
     3
 10
-91.619102589990447
 20
4.324396098624371
 30
0.0
 11
-93.296607475676424
 21
6.001900984310347
 31
0.0
  0
LINE
  5
C6DC2
  8
035
 62
     3
 10
-90.121821054371168
 20
3.2089522248457878
 30
0.0
 11
-90.558559581481319
 21
3.6456907519559789
 31
0.0
  0
LINE
  5
C6DC3
  8
035
 62
     3
 10
-91.549812468477583
 20
4.6369436389522232
 30
0.0
 11
-93.102764713134974
 21
6.1898958836095481
 31
0.0
  0
LINE
  5
C6DC4
  8
035
 62
     3
 10
-89.739983392530462
 20
3.2089522248457878
 30
0.0
 11
-90.489269459968455
 21
3.9582382922838319
 31
0.0
  0
LINE
  5
C6DC5
  8
035
 62
     3
 10
-91.480522346964733
 20
4.9494911792800762
 30
0.0
 11
-92.720927051294225
 21
6.1898958836095481
 31
0.0
  0
LINE
  5
C6DC6
  8
035
 62
     3
 10
-89.358145730689671
 20
3.2089522248457878
 30
0.0
 11
-90.419979338455548
 21
4.2707858326117192
 31
0.0
  0
LINE
  5
C6DC7
  8
035
 62
     3
 10
-91.411232225451869
 20
5.2620387196079799
 30
0.0
 11
-92.339089389453449
 21
6.1898958836095481
 31
0.0
  0
LINE
  5
C6DC8
  8
035
 62
     3
 10
-88.976308068848937
 20
3.2089522248457878
 30
0.0
 11
-90.350689216942698
 21
4.5833333729395722
 31
0.0
  0
LINE
  5
C6DC9
  8
035
 62
     3
 10
-91.341942103938976
 20
5.574586259935832
 30
0.0
 11
-91.957251727612729
 21
6.1898958836095481
 31
0.0
  0
LINE
  5
C6DCA
  8
035
 62
     3
 10
-88.68014443182048
 20
3.2946262496580712
 30
0.0
 11
-90.281399095429805
 21
4.8958809132674244
 31
0.0
  0
LINE
  5
C6DCB
  8
035
 62
     3
 10
-91.272651982426112
 20
5.8871338002637019
 30
0.0
 11
-91.57541406577198
 21
6.1898958836095481
 31
0.0
  0
LINE
  5
C6DCC
  8
035
 62
     3
 10
-88.610854310307616
 20
3.6071737899859411
 30
0.0
 11
-90.212108973916955
 21
5.2084284535952774
 31
0.0
  0
LINE
  5
C6DCD
  8
035
 62
     3
 10
-88.54156418879478
 20
3.9197213303138279
 30
0.0
 11
-90.142818852404048
 21
5.5209759939231304
 31
0.0
  0
LINE
  5
C6DCE
  8
035
 62
     3
 10
-88.295705358999641
 20
4.0557001623594617
 30
0.0
 11
-90.073528730891198
 21
5.8335235342510341
 31
0.0
  0
LINE
  5
C6DCF
  8
035
 62
     3
 10
-88.027961661601765
 20
4.1697941268023184
 30
0.0
 11
-90.004238609378305
 21
6.1460710745788871
 31
0.0
  0
LINE
  5
C6DD0
  8
035
 62
     3
 10
-87.760217964203889
 20
4.2838880912451742
 30
0.0
 11
-89.666225756568281
 21
6.1898958836095819
 31
0.0
  0
LINE
  5
C6DD1
  8
035
 62
     3
 10
-86.303444435963826
 20
3.2089522248458051
 30
0.0
 11
-89.284388094727575
 21
6.1898958836095819
 31
0.0
  0
LINE
  5
C6DD2
  8
035
 62
     3
 10
-85.921606774123106
 20
3.2089522248458051
 30
0.0
 11
-88.004104239355826
 21
5.2914496900785446
 31
0.0
  0
LINE
  5
C6DD3
  8
035
 62
     3
 10
-88.195113581230316
 20
5.4824590319530406
 30
0.0
 11
-88.902550432886841
 21
6.1898958836095819
 31
0.0
  0
LINE
  5
C6DD4
  8
035
 62
     3
 10
-85.539769112282315
 20
3.2089522248458051
 30
0.0
 11
-87.736360541957964
 21
5.4055436545214182
 31
0.0
  0
LINE
  5
C6DD5
  8
035
 62
     3
 10
-88.125823459717466
 20
5.7950065722809452
 30
0.0
 11
-88.520712771046078
 21
6.1898958836095819
 31
0.0
  0
LINE
  5
C6DD6
  8
035
 62
     3
 10
-85.157931450441581
 20
3.2089522248458051
 30
0.0
 11
-87.468616844560074
 21
5.5196376189642899
 31
0.0
  0
LINE
  5
C6DD7
  8
035
 62
     3
 10
-88.056533338204616
 20
6.1075541126088151
 30
0.0
 11
-88.138875109205344
 21
6.1898958836095819
 31
0.0
  0
LINE
  5
C6DD8
  8
035
 62
     3
 10
-84.776093788600846
 20
3.2089522248458051
 30
0.0
 11
-87.200873147162241
 21
5.6337315834071626
 31
0.0
  0
LINE
  5
C6DD9
  8
035
 62
     3
 10
-84.394256126760155
 20
3.2089522248458051
 30
0.0
 11
-86.933129449764394
 21
5.7478255478500362
 31
0.0
  0
LINE
  5
C6DDA
  8
035
 62
     3
 10
-84.012418464919421
 20
3.2089522248458051
 30
0.0
 11
-86.665385752366532
 21
5.861919512292908
 31
0.0
  0
LINE
  5
C6DDB
  8
035
 62
     3
 10
-85.618268385021025
 20
5.1966398067881547
 30
0.0
 11
-86.397642054968628
 21
5.9760134767357806
 31
0.0
  0
LINE
  5
C6DDC
  8
035
 62
     3
 10
-85.350524687623135
 20
5.3107337712310283
 30
0.0
 11
-86.129898357570795
 21
6.0901074411786542
 31
0.0
  0
LINE
  5
C6DDD
  8
035
 62
     3
 10
-85.082780990225316
 20
5.4248277356738832
 30
0.0
 11
-85.847849138160925
 21
6.189895883609565
 31
0.0
  0
LINE
  5
C6DDE
  8
035
 62
     3
 10
-84.815037292827441
 20
5.538921700116755
 30
0.0
 11
-85.46601147632019
 21
6.189895883609565
 31
0.0
  0
LINE
  5
C6DDF
  8
035
 62
     3
 10
-84.547293595429551
 20
5.6530156645596117
 30
0.0
 11
-85.084173814479456
 21
6.189895883609565
 31
0.0
  0
LINE
  5
C6DE0
  8
035
 62
     3
 10
-84.279549898031675
 20
5.7671096290025012
 30
0.0
 11
-84.702336152638694
 21
6.189895883609565
 31
0.0
  0
LINE
  5
C6DE1
  8
035
 62
     3
 10
-84.011806200633814
 20
5.881203593445357
 30
0.0
 11
-84.320498490797988
 21
6.189895883609565
 31
0.0
  0
LINE
  5
C6DE2
  8
035
 62
     3
 10
-83.744062503235924
 20
5.9952975578882297
 30
0.0
 11
-83.938660828957254
 21
6.189895883609565
 31
0.0
  0
LINE
  5
C6DE3
  8
035
 62
     3
 10
-83.476318805838105
 20
6.1093915223310846
 30
0.0
 11
-83.556823167116534
 21
6.189895883609565
 31
0.0
  0
ENDBLK
  5
C6DE5
  8
0
  0
BLOCK
  8
0
  2
TOLERANZ
 70
     0
 10
0.0
 20
0.0
 30
0.0
  3
TOLERANZ
  1

  0
LINE
  5
CD024
  8
MITTE
 10
-14.0
 20
38.0
 30
0.0
 11
-14.0
 21
-1.0
 31
0.0
  0
ENDBLK
  5
CD026
  8
0
  0
BLOCK
  8
0
  2
1
 70
     0
 10
74.0
 20
140.0
 30
0.0
  3
1
  1

  0
TEXT
  5
CD028
  8
SCHRAFFIERT
 10
74.0
 20
139.0
 30
0.0
 40
2.5
  1
%%P0.01
 41
0.7
 51
15.0
  0
ENDBLK
  5
CD02A
  8
0
  0
BLOCK
  8
0
  2
2
 70
     0
 10
74.0
 20
125.0
 30
0.0
  3
2
  1

  0
TEXT
  5
CD02C
  8
SCHRAFFIERT
 10
74.0
 20
124.0
 30
0.0
 40
2.5
  1
%%P0.05
 41
0.7
 51
15.0
  0
ENDBLK
  5
CD02E
  8
0
  0
BLOCK
  8
0
  2
3
 70
     0
 10
74.0
 20
118.0
 30
0.0
  3
3
  1

  0
TEXT
  5
CD030
  8
SCHRAFFIERT
 10
74.0
 20
117.0
 30
0.0
 40
2.5
  1
%%P0.1
 41
0.7
 51
15.0
  0
ENDBLK
  5
CD032
  8
0
  0
BLOCK
  8
0
  2
4
 70
     0
 10
74.0
 20
112.0
 30
0.0
  3
4
  1

  0
TEXT
  5
CD034
  8
SCHRAFFIERT
 10
74.0
 20
111.0
 30
0.0
 40
2.5
  1
%%P0.2
 41
0.7
 51
15.0
  0
ENDBLK
  5
CD036
  8
0
  0
BLOCK
  8
0
  2
5
 70
     0
 10
92.0
 20
138.0
 30
0.0
  3
5
  1

  0
TEXT
  5
CD038
  8
SCHRAFFIERT
 10
92.0
 20
135.83333333333329
 30
0.0
 40
2.5
  1
-0.01
 41
0.7
 51
15.0
  0
TEXT
  5
CD039
  8
SCHRAFFIERT
 10
92.0
 20
139.0
 30
0.0
 40
2.5
  1
+0
 41
0.7
 51
15.0
  0
ENDBLK
  5
CD03B
  8
0
  0
BLOCK
  8
0
  2
6
 70
     0
 10
104.0
 20
138.0
 30
0.0
  3
6
  1

  0
TEXT
  5
CD03D
  8
SCHRAFFIERT
 10
104.0
 20
135.83333333333329
 30
0.0
 40
2.5
  1
-0
 41
0.7
 51
15.0
  0
TEXT
  5
CD03E
  8
SCHRAFFIERT
 10
104.0
 20
139.0
 30
0.0
 40
2.5
  1
+0.01
 41
0.7
 51
15.0
  0
ENDBLK
  5
CD040
  8
0
  0
BLOCK
  8
0
  2
7
 70
     0
 10
119.0
 20
138.0
 30
0.0
  3
7
  1

  0
TEXT
  5
CD042
  8
SCHRAFFIERT
 10
119.0
 20
135.83333333333329
 30
0.0
 40
2.5
  1
-0.05
 41
0.7
 51
15.0
  0
TEXT
  5
CD043
  8
SCHRAFFIERT
 10
119.0
 20
139.0
 30
0.0
 40
2.5
  1
+0
 41
0.7
 51
15.0
  0
ENDBLK
  5
CD045
  8
0
  0
BLOCK
  8
0
  2
8
 70
     0
 10
132.0
 20
138.0
 30
0.0
  3
8
  1

  0
TEXT
  5
CD047
  8
SCHRAFFIERT
 10
132.0
 20
135.83333333333329
 30
0.0
 40
2.5
  1
-0
 41
0.7
 51
15.0
  0
TEXT
  5
CD048
  8
SCHRAFFIERT
 10
132.0
 20
139.0
 30
0.0
 40
2.5
  1
+0.05
 41
0.7
 51
15.0
  0
ENDBLK
  5
CD04A
  8
0
  0
BLOCK
  8
0
  2
9
 70
     0
 10
92.0
 20
127.0
 30
0.0
  3
9
  1

  0
TEXT
  5
CD04C
  8
SCHRAFFIERT
 10
92.0
 20
128.0
 30
0.0
 40
2.5
  1
+0
 41
0.7
 51
15.0
  0
TEXT
  5
CD04D
  8
SCHRAFFIERT
 10
92.0
 20
124.8333333333333
 30
0.0
 40
2.5
  1
-0.1
 41
0.7
 51
15.0
  0
ENDBLK
  5
CD04F
  8
0
  0
BLOCK
  8
0
  2
10
 70
     0
 10
104.0
 20
127.0
 30
0.0
  3
10
  1

  0
TEXT
  5
CD051
  8
SCHRAFFIERT
 10
104.0
 20
124.8333333333333
 30
0.0
 40
2.5
  1
-0
 41
0.7
 51
15.0
  0
TEXT
  5
CD052
  8
SCHRAFFIERT
 10
104.0
 20
128.0
 30
0.0
 40
2.5
  1
+0.1
 41
0.7
 51
15.0
  0
ENDBLK
  5
CD054
  8
0
  0
BLOCK
  8
0
  2
NT_S
 70
     0
 10
0.0
 20
0.0
 30
0.0
  3
NT_S
  1

  0
ENDBLK
  5
CD057
  8
0
  0
BLOCK
  8
0
  2
NT_S_3
 70
     0
 10
0.0
 20
0.0
 30
0.0
  3
NT_S_3
  1

  0
ENDBLK
  5
CD05A
  8
0
  0
BLOCK
  8
0
  2
ZKOPF-REAN
 70
     2
 10
0.0
 20
0.0
 30
0.0
  3
ZKOPF-REAN
  1

  0
TEXT
  5
CD082
  8
035
 10
517.65315784783218
 20
512.84858999021753
 30
0.0
 40
3.5
  1
  
 41
0.7
 51
15.0
  0
TEXT
  5
CD083
  8
035
 10
517.65315784783218
 20
512.84858999021753
 30
0.0
 40
3.5
  1
  
 41
0.7
 51
15.0
  0
TEXT
  5
CD084
  8
035
 10
517.65315784783218
 20
512.84858999021753
 30
0.0
 40
3.5
  1
  
 41
0.7
 51
15.0
  0
TEXT
  5
CD085
  8
035
 10
517.65315784783218
 20
512.84858999021753
 30
0.0
 40
3.5
  1
  
 41
0.7
 51
15.0
  0
TEXT
  5
CD086
  8
035
 10
517.65315784783218
 20
512.84858999021753
 30
0.0
 40
3.5
  1
  
 41
0.7
 51
15.0
  0
TEXT
  5
CD087
  8
035
 10
517.65315784783218
 20
512.84858999021753
 30
0.0
 40
3.5
  1
  
 41
0.7
 51
15.0
  0
TEXT
  5
CD088
  8
035
 10
517.65315784783218
 20
512.84858999021753
 30
0.0
 40
3.5
  1
  
 41
0.7
 51
15.0
  0
TEXT
  5
CD089
  8
035
 10
517.65315784783218
 20
512.84858999021753
 30
0.0
 40
3.5
  1
  
 41
0.7
 51
15.0
  0
TEXT
  5
CD08A
  8
035
 10
517.65315784783218
 20
512.84858999021753
 30
0.0
 40
3.5
  1
  
 41
0.7
 51
15.0
  0
TEXT
  5
CD08B
  8
035
 10
517.65315784783218
 20
512.84858999021753
 30
0.0
 40
3.5
  1
  
 41
0.7
 51
15.0
  0
TEXT
  5
CD08C
  8
035
 10
517.65315784783218
 20
512.84858999021753
 30
0.0
 40
3.5
  1
  
 41
0.7
 51
15.0
  0
TEXT
  5
CD08D
  8
035
 10
517.65315784783218
 20
512.84858999021753
 30
0.0
 40
3.5
  1
  
 41
0.7
 51
15.0
  0
ATTDEF
  5
CD08E
  8
0
 62
     4
 10
-15.166666666666661
 20
37.0
 30
0.0
 40
2.5
  1
Battlogg
  7
SCRIPTS
 72
     1
 11
-8.5
 21
37.0
 31
0.0
  3
Name des Konstrukteurs ?
  2
NAME
 70
     0
  0
POLYLINE
  5
CD08F
  8
0
 62
     2
 66
     1
 10
0.0
 20
0.0
 30
0.0
  0
VERTEX
  5
CD4AD
  8
0
 62
     2
 10
-51.0
 20
0.0
 30
0.0
  0
VERTEX
  5
CD4AE
  8
0
 62
     2
 10
-51.0
 20
46.0
 30
0.0
  0
SEQEND
  5
CD4AF
  8
0
 62
     2
  0
POLYLINE
  5
CD090
  8
0
 62
     2
 66
     1
 10
0.0
 20
0.0
 30
0.0
  0
VERTEX
  5
CD4B0
  8
0
 62
     2
 10
-17.0
 20
9.0
 30
0.0
  0
VERTEX
  5
CD4B1
  8
0
 62
     2
 10
-17.0
 20
46.0
 30
0.0
  0
SEQEND
  5
CD4B2
  8
0
 62
     2
  0
POLYLINE
  5
CD091
  8
0
 62
     2
 66
     1
 10
0.0
 20
0.0
 30
0.0
  0
VERTEX
  5
CD4B3
  8
0
 62
     2
 10
-32.0
 20
26.0
 30
0.0
  0
VERTEX
  5
CD4B4
  8
0
 62
     2
 10
-32.0
 20
46.0
 30
0.0
  0
SEQEND
  5
CD4B5
  8
0
 62
     2
  0
POLYLINE
  5
CD092
  8
0
 62
     2
 66
     1
 10
0.0
 20
0.0
 30
0.0
  0
VERTEX
  5
CD4B6
  8
0
 62
     2
 10
-133.0
 20
41.0
 30
0.0
  0
VERTEX
  5
CD4B7
  8
0
 62
     2
 10
-92.0
 20
41.0
 30
0.0
  0
SEQEND
  5
CD4B8
  8
0
 62
     2
  0
POLYLINE
  5
CD093
  8
0
 62
     2
 66
     1
 10
0.0
 20
0.0
 30
0.0
  0
VERTEX
  5
CD4B9
  8
0
 62
     2
 10
-145.0
 20
0.0
 30
0.0
  0
VERTEX
  5
CD4BA
  8
0
 62
     2
 10
-145.0
 20
46.0
 30
0.0
  0
SEQEND
  5
CD4BB
  8
0
 62
     2
  0
POLYLINE
  5
CD094
  8
0
 62
     2
 66
     1
 10
0.0
 20
0.0
 30
0.0
  0
VERTEX
  5
CD4BC
  8
0
 62
     2
 10
-158.0
 20
0.0
 30
0.0
  0
VERTEX
  5
CD4BD
  8
0
 62
     2
 10
-158.0
 20
46.0
 30
0.0
  0
SEQEND
  5
CD4BE
  8
0
 62
     2
  0
LINE
  5
CD095
  8
0
 62
     2
 10
-200.0
 20
6.0
 30
0.0
 11
-133.0
 21
6.0
 31
0.0
  0
POLYLINE
  5
CD096
  8
0
 62
     4
 66
     1
 10
0.0
 20
0.0
 30
0.0
  0
VERTEX
  5
CD4BF
  8
0
 62
     4
 10
-200.0
 20
11.0
 30
0.0
  0
VERTEX
  5
CD4C0
  8
0
 62
     4
 10
-133.0
 20
11.0
 30
0.0
  0
SEQEND
  5
CD4C1
  8
0
 62
     4
  0
POLYLINE
  5
CD097
  8
0
 62
     4
 66
     1
 10
0.0
 20
0.0
 30
0.0
  0
VERTEX
  5
CD4C2
  8
0
 62
     4
 10
-200.0
 20
16.0
 30
0.0
  0
VERTEX
  5
CD4C3
  8
0
 62
     4
 10
-133.0
 20
16.0
 30
0.0
  0
SEQEND
  5
CD4C4
  8
0
 62
     4
  0
POLYLINE
  5
CD098
  8
0
 62
     4
 66
     1
 10
0.0
 20
0.0
 30
0.0
  0
VERTEX
  5
CD4C5
  8
0
 62
     4
 10
-200.0
 20
21.0
 30
0.0
  0
VERTEX
  5
CD4C6
  8
0
 62
     4
 10
-133.0
 20
21.0
 30
0.0
  0
SEQEND
  5
CD4C7
  8
0
 62
     4
  0
POLYLINE
  5
CD099
  8
0
 62
     4
 66
     1
 10
0.0
 20
0.0
 30
0.0
  0
VERTEX
  5
CD4C8
  8
0
 62
     4
 10
-200.0
 20
26.0
 30
0.0
  0
VERTEX
  5
CD4C9
  8
0
 62
     4
 10
-133.0
 20
26.0
 30
0.0
  0
SEQEND
  5
CD4CA
  8
0
 62
     4
  0
POLYLINE
  5
CD09A
  8
0
 62
     4
 66
     1
 10
0.0
 20
0.0
 30
0.0
  0
VERTEX
  5
CD4CB
  8
0
 62
     4
 10
-200.0
 20
31.0
 30
0.0
  0
VERTEX
  5
CD4CC
  8
0
 62
     4
 10
-133.0
 20
31.0
 30
0.0
  0
SEQEND
  5
CD4CD
  8
0
 62
     4
  0
POLYLINE
  5
CD09B
  8
0
 62
     4
 66
     1
 10
0.0
 20
0.0
 30
0.0
  0
VERTEX
  5
CD4CE
  8
0
 62
     4
 10
-200.0
 20
36.0
 30
0.0
  0
VERTEX
  5
CD4CF
  8
0
 62
     4
 10
-133.0
 20
36.0
 30
0.0
  0
SEQEND
  5
CD4D0
  8
0
 62
     4
  0
POLYLINE
  5
CD09C
  8
0
 62
     4
 66
     1
 10
0.0
 20
0.0
 30
0.0
  0
VERTEX
  5
CD4D1
  8
0
 62
     4
 10
-200.0
 20
41.0
 30
0.0
  0
VERTEX
  5
CD4D2
  8
0
 62
     4
 10
-133.0
 20
41.0
 30
0.0
  0
SEQEND
  5
CD4D3
  8
0
 62
     4
  0
TEXT
  5
CD09D
  8
0
 62
     4
 10
-50.0
 20
6.0
 30
0.0
 40
1.5
  1
Zeichn. Nr.
 51
15.0
  0
TEXT
  5
CD09E
  8
0
 62
     4
 10
-50.0
 20
23.0
 30
0.0
 40
1.5
  1
Ersetzt durch:         Blatt
 51
15.0
  0
TEXT
  5
CD09F
  8
0
 62
     4
 10
-50.0
 20
38.0
 30
0.0
 40
1.5
  1
Gezeichnet
 51
15.0
  0
TEXT
  5
CD0A0
  8
0
 62
     4
 10
-50.0
 20
27.0
 30
0.0
 40
1.5
  1
Gesehen
 51
15.0
  0
TEXT
  5
CD0A1
  8
0
 62
     4
 10
-31.0
 20
42.0
 30
0.0
 40
1.5
  1
Datum     Name
 51
15.0
  0
TEXT
  5
CD0A2
  8
0
 62
     4
 10
-91.0
 20
42.0
 30
0.0
 40
1.5
  1
Werkstoff:      Massstab:
 51
15.0
  0
TEXT
  5
CD0A3
  8
0
 62
     4
 10
-132.0
 20
23.0
 30
0.0
 40
1.5
  1
Benennung:
 51
15.0
  0
LINE
  5
CD0A4
  8
0
 62
     2
 10
-133.0
 20
33.0
 30
0.0
 11
-92.0
 21
33.0
 31
0.0
  0
TEXT
  5
CD0A5
  8
0
 62
     4
 10
-132.0
 20
39.0
 30
0.0
 40
1.5
  1
*)Lieferant darf ohne 
 51
15.0
  0
TEXT
  5
CD0A6
  8
0
 62
     4
 10
-132.0
 20
36.5
 30
0.0
 40
1.5
  1
 Ruecksprache nicht 
 51
15.0
  0
TEXT
  5
CD0A7
  8
0
 62
     4
 10
-132.0
 20
34.0
 30
0.0
 40
1.5
  1
 geaendert werden
 51
15.0
  0
TEXT
  5
CD0A8
  8
0
 62
     4
 10
-132.0
 20
30.0
 30
0.0
 40
1.5
  1
Zeichnung urheberrechtlich
 51
15.0
  0
TEXT
  5
CD0A9
  8
0
 62
     4
 10
-132.0
 20
27.5
 30
0.0
 40
1.5
  1
geschuetzt (DIN 34) (C)
 51
15.0
  0
TEXT
  5
CD0AA
  8
0
 62
     4
 10
-50.0
 20
32.0
 30
0.0
 40
1.5
  1
Geprueft
 51
15.0
  0
TEXT
  5
CD0AB
  8
0
 62
     4
 10
-50.0
 20
15.0
 30
0.0
 40
1.5
  1
Ersatz fuer:           von  Blatt
 51
15.0
  0
TEXT
  5
CD0AC
  8
0
 62
     4
 10
-197.0
 20
1.0
 30
0.0
 40
1.5
  1
Ind.  Aenderung             Datum    Name
 51
15.0
  0
ATTDEF
  5
CD0AD
  8
0
 62
     4
 10
-30.770833333333329
 20
37.0
 30
0.0
 40
2.5
  1
03.11.2004
 41
0.7
 51
15.0
 72
     1
 11
-24.5
 21
37.0
 31
0.0
  3
Datum der Zeichnung ?
  2
DATE
 70
     0
  0
ATTDEF
  5
CD0AE
  8
0
 62
     4
 10
-80.5
 20
36.0
 30
0.0
 40
2.5
  1

 41
0.7
 51
15.0
 72
     1
 11
-80.5
 21
36.0
 31
0.0
  3
Aus welchem Werkstoff ?
  2
WERKSTOFF
 70
     0
  0
ATTDEF
  5
CD0AF
  8
0
 62
     2
 10
-92.0
 20
12.5
 30
0.0
 40
5.0
  1

 41
0.7
 51
15.0
 72
     1
 11
-92.0
 21
12.5
 31
0.0
  3
Zeichnungsname ?
  2
BENENNUNG
 70
     0
  0
ATTDEF
  5
CD0B0
  8
0
 62
     3
 10
-90.265456601878626
 20
21.082191450526931
 30
0.0
 40
3.5
  1
()
 41
0.7
 51
15.0
 72
     1
 11
-89.040456601878617
 21
21.082191450526931
 31
0.0
  3
Zu welchem Produkt ?
  2
TEIL
 70
     0
  0
ATTDEF
  5
CD0B1
  8
0
 62
     3
 10
-20.550219082576412
 20
1.9765410165377939
 30
0.0
 40
3.5
  1

 41
0.7
 51
15.0
 72
     1
 11
-20.550219082576412
 21
1.9765410165377939
 31
0.0
  3
Zeichnungsnummer ?
  2
NUMMER
 70
     0
  0
ATTDEF
  5
CD0B2
  8
0
 62
     2
 10
-62.89933830414278
 20
34.656056232934532
 30
0.0
 40
5.0
  1
1:1
 41
0.7
 51
15.0
 72
     1
 11
-60.566004970809438
 21
34.656056232934532
 31
0.0
  3
Hauptmassstab:
  2
MASS
 70
     0
  0
ATTDEF
  5
CD0B3
  8
0
 62
     3
 10
-60.480700945980033
 20
28.210450539175302
 30
0.0
 40
3.5
  1

 41
0.7
 51
15.0
 72
     1
 11
-60.480700945980033
 21
28.210450539175302
 31
0.0
  3
Nebenmassstab:
  2
MASS2
 70
     0
  0
ATTDEF
  5
CD0B4
  8
0
 62
     4
 10
-81.0
 20
29.0
 30
0.0
 40
2.5
  1

 41
0.7
 51
15.0
 72
     1
 11
-81.0
 21
29.0
 31
0.0
  3
Werkstoffzusatz:
  2
TEIL
 70
     0
  0
ATTDEF
  5
CD0B5
  8
0
 62
     3
 10
-107.7114519405618
 20
59.004318747429437
 30
0.0
 40
3.5
  1
Freimasstoleranzen %%p0.1
 41
0.7
 51
15.0
  3
Freimasstoleranzen:
  2
TOL
 70
     0
  0
ATTDEF
  5
CD0B6
  8
0
 62
     3
 10
-107.7114519405618
 20
54.004318747429437
 30
0.0
 40
3.5
  1
nicht bemasste Radien R=0.2
 41
0.7
 51
15.0
  3
Nicht bemasste Radien:
  2
RADIEN
 70
     0
  0
ATTDEF
  5
CD0B7
  8
0
 62
     3
 10
-107.7114519405618
 20
49.004318747429437
 30
0.0
 40
3.5
  1
nicht bemasste Facetten 0.5 x 45%%D
 41
0.7
 51
15.0
  3
nicht bemasste Facetten:
  2
FACETTE
 70
     0
  0
POLYLINE
  5
CD0B8
  8
0
 62
     2
 66
     1
 10
0.0
 20
0.0
 30
0.0
  0
VERTEX
  5
CD4D4
  8
0
 62
     2
 10
-191.0
 20
0.0
 30
0.0
  0
VERTEX
  5
CD4D5
  8
0
 62
     2
 10
-191.0
 20
46.0
 30
0.0
  0
SEQEND
  5
CD4D6
  8
0
 62
     2
  0
POLYLINE
  5
CD0B9
  8
0
 62
     2
 66
     1
 10
0.0
 20
0.0
 30
0.0
  0
VERTEX
  5
CD4D7
  8
0
 62
     2
 10
-133.0
 20
0.0
 30
0.0
  0
VERTEX
  5
CD4D8
  8
0
 62
     2
 10
-133.0
 20
46.0
 30
0.0
  0
SEQEND
  5
CD4D9
  8
0
 62
     2
  0
POLYLINE
  5
CD0BA
  8
0
 62
     2
 66
     1
 10
0.0
 20
0.0
 30
0.0
  0
VERTEX
  5
CD4DA
  8
0
 62
     2
 10
-92.0
 20
26.0
 30
0.0
  0
VERTEX
  5
CD4DB
  8
0
 62
     2
 10
-92.0
 20
46.0
 30
0.0
  0
SEQEND
  5
CD4DC
  8
0
 62
     2
  0
POLYLINE
  5
CD0BB
  8
0
 62
     2
 66
     1
 10
0.0
 20
0.0
 30
0.0
  0
VERTEX
  5
CD4DD
  8
0
 62
     2
 10
-69.0
 20
26.0
 30
0.0
  0
VERTEX
  5
CD4DE
  8
0
 62
     2
 10
-69.0
 20
46.0
 30
0.0
  0
SEQEND
  5
CD4DF
  8
0
 62
     2
  0
ATTDEF
  5
CD0BC
  8
0
 62
     4
 10
-197.1862672583826
 20
7.0
 30
0.0
 40
2.5
  1

 41
0.7
 51
15.0
  3
Index1:
  2
INDEX1
 70
     0
  0
ATTDEF
  5
CD0BD
  8
0
 62
     4
 10
-190.34874260355031
 20
7.0
 30
0.0
 40
2.5
  1

 41
0.7
 51
15.0
  3
Aenderung1:
  2
A1
 70
     0
  0
ATTDEF
  5
CD0BE
  8
0
 62
     4
 10
-157.34874260355031
 20
7.0
 30
0.0
 40
2.5
  1

 41
0.7
 51
15.0
  3
Datum1:
  2
DATUM1
 70
     0
  0
ATTDEF
  5
CD0BF
  8
0
 62
     4
 10
-144.46499013806701
 20
7.0
 30
0.0
 40
2.5
  1

 41
0.7
 51
15.0
  3
Name1:
  2
NAME1
 70
     0
  0
ATTDEF
  5
CD0C0
  8
0
 62
     4
 10
-197.1862672583826
 20
12.0
 30
0.0
 40
2.5
  1

 41
0.7
 51
15.0
  3
Index2:
  2
INDEX2
 70
     0
  0
ATTDEF
  5
CD0C1
  8
0
 62
     4
 10
-190.34874260355031
 20
12.0
 30
0.0
 40
2.5
  1

 41
0.7
 51
15.0
  3
Aenderung2:
  2
A2
 70
     0
  0
ATTDEF
  5
CD0C2
  8
0
 62
     4
 10
-157.34874260355031
 20
12.0
 30
0.0
 40
2.5
  1

 41
0.7
 51
15.0
  3
Datum2:
  2
DATUM2
 70
     0
  0
ATTDEF
  5
CD0C3
  8
0
 62
     4
 10
-144.46499013806701
 20
12.0
 30
0.0
 40
2.5
  1

 41
0.7
 51
15.0
  3
Name2
  2
NAME2
 70
     0
  0
ATTDEF
  5
CD0C4
  8
0
 62
     4
 10
-197.1862672583826
 20
17.0
 30
0.0
 40
2.5
  1

 41
0.7
 51
15.0
  3
Index3:
  2
INDEX3
 70
     0
  0
ATTDEF
  5
CD0C5
  8
0
 62
     4
 10
-190.34874260355031
 20
17.0
 30
0.0
 40
2.5
  1

 41
0.7
 51
15.0
  3
Aenderung3
  2
A3
 70
     0
  0
ATTDEF
  5
CD0C6
  8
0
 62
     4
 10
-157.34874260355031
 20
17.0
 30
0.0
 40
2.5
  1

 41
0.7
 51
15.0
  3
Datum3:
  2
DATUM3
 70
     0
  0
ATTDEF
  5
CD0C7
  8
0
 62
     4
 10
-144.46499013806701
 20
17.0
 30
0.0
 40
2.5
  1

 41
0.7
 51
15.0
  3
Name3:
  2
NAME3
 70
     0
  0
ATTDEF
  5
CD0C8
  8
0
 62
     4
 10
-197.1862672583826
 20
22.0
 30
0.0
 40
2.5
  1

 41
0.7
 51
15.0
  3
Index4:
  2
INDEX4
 70
     0
  0
ATTDEF
  5
CD0C9
  8
0
 62
     4
 10
-190.34874260355031
 20
22.0
 30
0.0
 40
2.5
  1

 41
0.7
 51
15.0
  3
Aenderung4:
  2
A4
 70
     0
  0
ATTDEF
  5
CD0CA
  8
0
 62
     4
 10
-157.34874260355031
 20
22.0
 30
0.0
 40
2.5
  1

 41
0.7
 51
15.0
  3
Datum4:
  2
DATUM4
 70
     0
  0
ATTDEF
  5
CD0CB
  8
0
 62
     4
 10
-144.46499013806701
 20
22.0
 30
0.0
 40
2.5
  1

 41
0.7
 51
15.0
  3
Name4:
  2
NAME4
 70
     0
  0
ATTDEF
  5
CD0CC
  8
0
 62
     4
 10
-197.1862672583826
 20
27.0
 30
0.0
 40
2.5
  1

 41
0.7
 51
15.0
  3
Index5:
  2
INDEX5
 70
     0
  0
ATTDEF
  5
CD0CD
  8
0
 62
     4
 10
-190.34874260355031
 20
27.0
 30
0.0
 40
2.5
  1

 41
0.7
 51
15.0
  3
Aenderung5:
  2
A5
 70
     0
  0
ATTDEF
  5
CD0CE
  8
0
 62
     4
 10
-157.34874260355031
 20
27.0
 30
0.0
 40
2.5
  1

 41
0.7
 51
15.0
  3
Datum5:
  2
DATUM5
 70
     0
  0
ATTDEF
  5
CD0CF
  8
0
 62
     4
 10
-144.46499013806701
 20
27.0
 30
0.0
 40
2.5
  1

 41
0.7
 51
15.0
  3
Name5
  2
NAME5
 70
     0
  0
ATTDEF
  5
CD0D0
  8
0
 62
     4
 10
-197.1862672583826
 20
32.0
 30
0.0
 40
2.5
  1

 41
0.7
 51
15.0
  3
Index6:
  2
INDEX6
 70
     0
  0
ATTDEF
  5
CD0D1
  8
0
 62
     4
 10
-190.34874260355031
 20
32.0
 30
0.0
 40
2.5
  1

 41
0.7
 51
15.0
  3
Aenderung6:
  2
A6
 70
     0
  0
ATTDEF
  5
CD0D2
  8
0
 62
     4
 10
-157.34874260355031
 20
32.0
 30
0.0
 40
2.5
  1

 41
0.7
 51
15.0
  3
Datum6:
  2
DATUM6
 70
     0
  0
ATTDEF
  5
CD0D3
  8
0
 62
     4
 10
-144.46499013806701
 20
32.0
 30
0.0
 40
2.5
  1

 41
0.7
 51
15.0
  3
Name6:
  2
NAME6
 70
     0
  0
ATTDEF
  5
CD0D4
  8
0
 62
     4
 10
-197.1862672583826
 20
37.0
 30
0.0
 40
2.5
  1

 41
0.7
 51
15.0
  3
Index7:
  2
INDEX7
 70
     0
  0
ATTDEF
  5
CD0D5
  8
0
 62
     4
 10
-190.34874260355031
 20
37.0
 30
0.0
 40
2.5
  1

 41
0.7
 51
15.0
  3
Aenderung7:
  2
A7
 70
     0
  0
ATTDEF
  5
CD0D6
  8
0
 62
     4
 10
-157.34874260355031
 20
37.0
 30
0.0
 40
2.5
  1

 41
0.7
 51
15.0
  3
Datum7:
  2
DATUM7
 70
     0
  0
ATTDEF
  5
CD0D7
  8
0
 62
     4
 10
-144.46499013806701
 20
37.0
 30
0.0
 40
2.5
  1

 41
0.7
 51
15.0
  3
Name7:
  2
NAME7
 70
     0
  0
ATTDEF
  5
CD0D8
  8
0
 62
     4
 10
-197.1862672583826
 20
42.0
 30
0.0
 40
2.5
  1

 41
0.7
 51
15.0
  3
Index8:
  2
INDEX8
 70
     0
  0
ATTDEF
  5
CD0D9
  8
0
 62
     4
 10
-190.34874260355031
 20
42.0
 30
0.0
 40
2.5
  1

 41
0.7
 51
15.0
  3
Aenderung8:
  2
A8
 70
     0
  0
ATTDEF
  5
CD0DA
  8
0
 62
     4
 10
-157.34874260355031
 20
42.0
 30
0.0
 40
2.5
  1

 41
0.7
 51
15.0
  3
Datum8:
  2
DATUM8
 70
     0
  0
ATTDEF
  5
CD0DB
  8
0
 62
     4
 10
-144.46499013806701
 20
42.0
 30
0.0
 40
2.5
  1

 41
0.7
 51
15.0
  3
Name8:
  2
NAME8
 70
     0
  0
POLYLINE
  5
CD0DC
  8
0
 62
     2
 66
     1
 10
0.0
 20
0.0
 30
0.0
  0
VERTEX
  5
CD4E0
  8
0
 62
     2
 10
0.0
 20
0.0
 30
0.0
  0
VERTEX
  5
CD4E1
  8
0
 62
     2
 10
0.0
 20
46.0
 30
0.0
  0
SEQEND
  5
CD4E2
  8
0
 62
     2
  0
POLYLINE
  5
CD0DD
  8
0
 62
     2
 66
     1
 10
0.0
 20
0.0
 30
0.0
  0
VERTEX
  5
CD4E3
  8
0
 62
     2
 10
-200.0
 20
46.0
 30
0.0
  0
VERTEX
  5
CD4E4
  8
0
 62
     2
 10
-200.0
 20
0.0
 30
0.0
  0
SEQEND
  5
CD4E5
  8
0
 62
     2
  0
POLYLINE
  5
CD0DE
  8
0
 62
     2
 66
     1
 10
0.0
 20
0.0
 30
0.0
  0
VERTEX
  5
CD4E6
  8
0
 62
     2
 10
0.0
 20
9.0
 30
0.0
  0
VERTEX
  5
CD4E7
  8
0
 62
     2
 10
-133.0
 20
9.0
 30
0.0
  0
SEQEND
  5
CD4E8
  8
0
 62
     2
  0
POLYLINE
  5
CD0DF
  8
0
 62
     2
 66
     1
 10
0.0
 20
0.0
 30
0.0
  0
VERTEX
  5
CD4E9
  8
0
 62
     2
 10
0.0
 20
18.0
 30
0.0
  0
VERTEX
  5
CD4EA
  8
0
 62
     2
 10
-51.0
 20
18.0
 30
0.0
  0
SEQEND
  5
CD4EB
  8
0
 62
     2
  0
POLYLINE
  5
CD0E0
  8
0
 62
     2
 66
     1
 10
0.0
 20
0.0
 30
0.0
  0
VERTEX
  5
CD4EC
  8
0
 62
     2
 10
0.0
 20
26.0
 30
0.0
  0
VERTEX
  5
CD4ED
  8
0
 62
     2
 10
-133.0
 20
26.0
 30
0.0
  0
SEQEND
  5
CD4EE
  8
0
 62
     2
  0
POLYLINE
  5
CD0E1
  8
0
 62
     2
 66
     1
 10
0.0
 20
0.0
 30
0.0
  0
VERTEX
  5
CD4EF
  8
0
 62
     2
 10
0.0
 20
31.0
 30
0.0
  0
VERTEX
  5
CD4F0
  8
0
 62
     2
 10
-51.0
 20
31.0
 30
0.0
  0
SEQEND
  5
CD4F1
  8
0
 62
     2
  0
POLYLINE
  5
CD0E2
  8
0
 62
     2
 66
     1
 10
0.0
 20
0.0
 30
0.0
  0
VERTEX
  5
CD4F2
  8
0
 62
     2
 10
0.0
 20
36.0
 30
0.0
  0
VERTEX
  5
CD4F3
  8
0
 62
     2
 10
-51.0
 20
36.0
 30
0.0
  0
SEQEND
  5
CD4F4
  8
0
 62
     2
  0
POLYLINE
  5
CD0E3
  8
0
 62
     2
 66
     1
 10
0.0
 20
0.0
 30
0.0
  0
VERTEX
  5
CD4F5
  8
0
 62
     2
 10
0.0
 20
41.0
 30
0.0
  0
VERTEX
  5
CD4F6
  8
0
 62
     2
 10
-51.0
 20
41.0
 30
0.0
  0
SEQEND
  5
CD4F7
  8
0
 62
     2
  0
POLYLINE
  5
CD0E4
  8
0
 62
     2
 66
     1
 10
0.0
 20
0.0
 30
0.0
  0
VERTEX
  5
CD4F8
  8
0
 62
     2
 10
0.0
 20
46.0
 30
0.0
  0
VERTEX
  5
CD4F9
  8
0
 62
     2
 10
-200.0
 20
46.0
 30
0.0
  0
SEQEND
  5
CD4FA
  8
0
 62
     2
  0
TEXT
  5
CD0E5
  8
035
 10
517.65315784783218
 20
512.84858999021753
 30
0.0
 40
3.5
  1
  
 41
0.7
 51
15.0
  0
LINE
  5
CD0E6
  8
05
 10
-109.78683304835209
 20
1.9918663370028851
 30
0.0
 11
-107.1218538217631
 21
1.9918663370028851
 31
0.0
  0
LINE
  5
CD0E7
  8
05
 10
-109.78683304835209
 20
1.9918663370028851
 30
0.0
 11
-108.88484451080581
 21
5.7212269608096227
 31
0.0
  0
LINE
  5
CD0E8
  8
05
 10
-97.883056873532695
 20
2.941046471765929
 30
0.0
 11
-97.741767658313606
 21
3.5252206756179341
 31
0.0
  0
LINE
  5
CD0E9
  8
05
 10
-100.62675264869139
 20
1.985934361472224
 30
0.0
 11
-99.739169578347628
 21
5.6557341594846191
 31
0.0
  0
LINE
  5
CD0EA
  8
05
 10
-101.6525702459091
 20
1.991866337002882
 30
0.0
 11
-103.7779290465684
 21
3.448339754567221
 31
0.0
  0
LINE
  5
CD0EB
  8
05
 10
-104.57533813105159
 20
1.9918663370028851
 30
0.0
 11
-106.7597940825441
 21
3.48883805970712
 31
0.0
  0
LINE
  5
CD0EC
  8
05
 10
-107.1218538217631
 20
1.9918663370028851
 30
0.0
 11
-106.7597940825441
 21
3.48883805970712
 31
0.0
  0
LINE
  5
CD0ED
  8
05
 10
-78.264921974117073
 20
1.9918663370018479
 30
0.0
 11
-80.343243437722805
 21
4.2570158836873508
 31
0.0
  0
LINE
  5
CD0EE
  8
05
 10
-75.015520852942274
 20
1.991866337002878
 30
0.0
 11
-74.129372498752886
 21
5.655734159485319
 31
0.0
  0
LINE
  5
CD0EF
  8
05
 10
-80.891095773025427
 20
1.9918663370025049
 30
0.0
 11
-80.343243437723174
 21
4.2570158836866483
 31
0.0
  0
LINE
  5
CD0F0
  8
05
 10
-83.271451166946505
 20
1.9918663370025049
 30
0.0
 11
-82.385302812758056
 21
5.6557341594842887
 31
0.0
  0
LINE
  5
CD0F1
  8
05
 10
-86.159077321275419
 20
5.6557341594846164
 30
0.0
 11
-84.240667666742979
 21
1.991866337002882
 31
0.0
  0
LINE
  5
CD0F2
  8
05
 10
-92.656302414444966
 20
1.9918663370025049
 30
0.0
 11
-89.20289518730408
 21
5.6557341594846164
 31
0.0
  0
LINE
  5
CD0F3
  8
05
 10
-99.739169578347628
 20
5.6557341594846191
 30
0.0
 11
-92.981553597599401
 21
5.655734159485319
 31
0.0
  0
LINE
  5
CD0F4
  8
05
 10
-97.554767568331016
 20
4.2983910022902228
 30
0.0
 11
-97.430100730957875
 21
4.8138383445134698
 31
0.0
  0
LINE
  5
CD0F5
  8
05
 10
-97.741767658313975
 20
3.5252206756176032
 30
0.0
 11
-94.448619706812366
 21
3.5252206756179341
 31
0.0
  0
LINE
  5
CD0F6
  8
05
 10
-97.554767568330632
 20
4.2983910022905496
 30
0.0
 11
-94.261619616829677
 21
4.2983910022902228
 31
0.0
  0
ARC
  5
CD0F7
  8
05
 10
-103.576800163518
 20
1.0484882972761149
 30
0.0
 40
4.6037310052774787
 50
69.562986325370431
 51
81.731692240168215
  0
ARC
  5
CD0F8
  8
05
 10
-104.3603333216701
 20
9.6953157949000115
 30
0.0
 40
6.2740660171972342
 50
275.32627756006741
 51
289.52599257429313
  0
ARC
  5
CD0F9
  8
05
 10
-102.5940664039618
 20
4.9720770628631987
 30
0.0
 40
1.2327170994611441
 50
286.58188649066301
 51
338.14695643463642
  0
ARC
  5
CD0FA
  8
05
 10
-102.0219367310586
 20
4.683869386119464
 30
0.0
 40
0.5972269208190048
 50
340.39974372020578
 51
51.414227838870453
  0
ARC
  5
CD0FB
  8
05
 10
-102.9254509671164
 20
3.5630113224345119
 30
0.0
 40
2.0377001943981661
 50
51.536856151961693
 51
62.015041241413471
  0
ARC
  5
CD0FC
  8
05
 10
-105.569754799183
 20
-23.421023874283328
 30
0.0
 40
29.146566368908172
 50
84.676683437458124
 51
90.985976470691384
  0
ARC
  5
CD0FD
  8
05
 10
-105.66275477025729
 20
8.0454129654963822
 30
0.0
 40
4.086755202961017
 50
273.84453704372032
 51
284.46462793712249
  0
ARC
  5
CD0FE
  8
05
 10
-105.4613562964997
 20
1.639787309913312
 30
0.0
 40
3.3174382729703238
 50
71.645510386436442
 51
85.712787694453695
  0
ARC
  5
CD0FF
  8
05
 10
-105.26614317300449
 20
5.6230814654518531
 30
0.0
 40
1.6569466452348129
 50
292.13000306555853
 51
304.02720735554431
  0
ARC
  5
CD100
  8
05
 10
-104.53310252415289
 20
4.4967315408467341
 30
0.0
 40
0.3140859843502878
 50
308.18397114713127
 51
68.249047543413937
  0
LINE
  5
CD101
  8
05
 10
-106.68286465598079
 20
3.9678543882207711
 30
0.0
 11
-106.4458190427289
 21
4.9479428697369414
 31
0.0
  0
LINE
  5
CD102
  8
05
 10
-106.68286465598079
 20
3.9678543882210979
 30
0.0
 11
-105.3887399206229
 21
3.9678543882214292
 31
0.0
  0
LINE
  5
CD103
  8
05
 10
-106.4458190427289
 20
4.9479428697369414
 30
0.0
 11
-105.21335733083011
 21
4.9479428697372683
 31
0.0
  0
LINE
  5
CD104
  8
05
 10
-108.88484451080581
 20
5.7212269608096227
 30
0.0
 11
-106.0016110672158
 21
5.7212269608096227
 31
0.0
  0
LINE
  5
CD105
  8
05
 10
-93.185175733272004
 20
4.8138383445131403
 30
0.0
 11
-92.981553597599401
 21
5.655734159485319
 31
0.0
  0
LINE
  5
CD106
  8
05
 10
-97.430100730958173
 20
4.8138383445131403
 30
0.0
 11
-93.185175733271606
 21
4.8138383445134698
 31
0.0
  0
LINE
  5
CD107
  8
05
 10
-94.448619706812366
 20
3.5252206756176032
 30
0.0
 11
-94.261619616829961
 21
4.2983910022905496
 31
0.0
  0
LINE
  5
CD108
  8
05
 10
-77.190213188165629
 20
3.465138938138046
 30
0.0
 11
-76.660392669483571
 21
5.6557341594846164
 31
0.0
  0
LINE
  5
CD109
  8
05
 10
-81.626596326446361
 20
5.6557341594842887
 30
0.0
 11
-81.629003084324466
 21
5.6583572698222611
 31
0.0
  0
LINE
  5
CD10A
  8
05
 10
-76.660392669483571
 20
5.6557341594846164
 30
0.0
 11
-74.129372498752886
 21
5.655734159485319
 31
0.0
  0
LINE
  5
CD10B
  8
05
 10
-77.190213188165629
 20
3.465138938138046
 30
0.0
 11
-79.200129519411831
 21
5.6557341594846164
 31
0.0
  0
LINE
  5
CD10C
  8
05
 10
-82.385302812758056
 20
5.6557341594842887
 30
0.0
 11
-79.200129519411831
 21
5.6557341594846164
 31
0.0
  0
LINE
  5
CD10D
  8
05
 10
-89.117244030689307
 20
3.2846780332485639
 30
0.0
 11
-87.581878719349504
 21
3.2846780332485599
 31
0.0
  0
LINE
  5
CD10E
  8
05
 10
-89.117244030689307
 20
3.2846780332485639
 30
0.0
 11
-88.130195927732785
 21
4.3318796940438018
 31
0.0
  0
LINE
  5
CD10F
  8
05
 10
-88.130195927733425
 20
4.3318796940431454
 30
0.0
 11
-87.581878719349135
 21
3.2846780332485599
 31
0.0
  0
LINE
  5
CD110
  8
05
 10
-89.20289518730408
 20
5.6557341594846164
 30
0.0
 11
-86.159077321275419
 21
5.6557341594846164
 31
0.0
  0
LINE
  5
CD111
  8
05
 10
-90.335793790522885
 20
1.9918663370025049
 30
0.0
 11
-89.910780799877074
 21
2.4427808449485511
 31
0.0
  0
LINE
  5
CD112
  8
05
 10
-100.6253179325368
 20
1.9918663370025089
 30
0.0
 11
-93.867701951788149
 21
1.991866337003209
 31
0.0
  0
LINE
  5
CD113
  8
05
 10
-97.883056873532041
 20
2.9410464717656022
 30
0.0
 11
-93.638131875846156
 21
2.941046471765929
 31
0.0
  0
LINE
  5
CD114
  8
05
 10
-104.57533813105159
 20
1.9918663370028851
 30
0.0
 11
-101.58288153919079
 21
1.991866337002882
 31
0.0
  0
LINE
  5
CD115
  8
05
 10
-92.656302414444966
 20
1.9918663370025049
 30
0.0
 11
-90.335793790522885
 21
1.9918663370025049
 31
0.0
  0
LINE
  5
CD116
  8
05
 10
-93.869136667943124
 20
1.985934361472224
 30
0.0
 11
-93.638131875846454
 21
2.941046471765929
 31
0.0
  0
LINE
  5
CD117
  8
05
 10
-78.264921974116689
 20
1.9918663370021781
 30
0.0
 11
-75.015520852942657
 21
1.9918663370025049
 31
0.0
  0
LINE
  5
CD118
  8
05
 10
-83.271451166946505
 20
1.9918663370025049
 30
0.0
 11
-80.891095773025427
 21
1.9918663370025049
 31
0.0
  0
LINE
  5
CD119
  8
05
 10
-89.910780799877074
 20
2.4427808449485511
 30
0.0
 11
-87.141059406969234
 21
2.4427808449482198
 31
0.0
  0
LINE
  5
CD11A
  8
05
 10
-87.141059406969234
 20
2.442780844948877
 30
0.0
 11
-86.904959529102058
 21
1.991866337002882
 31
0.0
  0
LINE
  5
CD11B
  8
05
 10
-86.904959529102058
 20
1.991866337002882
 30
0.0
 11
-84.240667666742979
 21
1.991866337002882
 31
0.0
  0
ENDBLK
  5
CD11D
  8
0
  0
BLOCK
  8
0
  2
A$C36291E6D
 70
     0
 10
0.0
 20
0.0
 30
0.0
  3
A$C36291E6D
  1

  0
LINE
  5
CD11F
  8
025
 10
1.130109179932006
 20
-0.0000002720705936
 30
0.0
 11
-0.0000001000094301
 21
0.2733295877919488
 31
0.0
  0
LINE
  5
CD120
  8
025
 10
1.130109179932006
 20
-0.0000002720705936
 30
0.0
 11
1.130109179932006
 21
0.8075691905321492
 31
0.0
  0
LINE
  5
CD121
  8
025
 10
1.130109179932119
 20
5.1910696169921939
 30
0.0
 11
0.0198462034223894
 21
6.2375566555197386
 31
0.0
  0
LINE
  5
CD122
  8
025
 10
0.0198462034223894
 20
7.159925705831454
 30
0.0
 11
1.130109179932006
 21
7.7412619647806764
 31
0.0
  0
LINE
  5
CD123
  8
025
 10
1.130109179932119
 20
8.0349639344159698
 30
0.0
 11
0.0198462034224889
 21
8.3034937387155026
 31
0.0
  0
LINE
  5
CD124
  8
025
 10
1.130109179932119
 20
8.7562837507556992
 30
0.0
 11
0.4437002263914707
 21
8.922299609938193
 31
0.0
  0
LINE
  5
CD125
  8
025
 10
1.130109179932006
 20
10.536760999265731
 30
0.0
 11
0.0198462034221763
 21
10.805290803565549
 31
0.0
  0
LINE
  5
CD126
  8
025
 10
1.130109179932318
 20
9.5520939928491373
 30
0.0
 11
0.4437002263912575
 21
8.9222996099383067
 31
0.0
  0
LINE
  5
CD127
  8
025
 10
1.130109179932006
 20
0.8075691905321492
 30
0.0
 11
0.6764813851731475
 21
0.9172842630227648
 31
0.0
  0
LINE
  5
CD128
  8
025
 10
1.130109179932006
 20
1.579240611959875
 30
0.0
 11
0.6764813851731475
 21
0.9172842630227648
 31
0.0
  0
LINE
  5
CD129
  8
025
 10
1.130109179932006
 20
2.464927849881831
 30
0.0
 11
0.6887535988519034
 21
1.8208797284699469
 31
0.0
  0
LINE
  5
CD12A
  8
025
 10
1.1319067482746299
 20
2.7757816672205422
 30
0.0
 11
0.0198462034223894
 21
3.0447462339913889
 31
0.0
  0
LINE
  5
CD12B
  8
025
 10
0.8424788360644157
 20
3.6072046293898552
 30
0.0
 11
0.6654563500486576
 21
3.6500195430926108
 31
0.0
  0
LINE
  5
CD12C
  8
025
 10
0.665456350048757
 20
4.6479431647596519
 30
0.0
 11
0.4311623116630159
 21
4.704609858693714
 31
0.0
  0
LINE
  5
CD12D
  8
025
 10
0.2749661473531404
 20
3.7444640665336522
 30
0.0
 11
0.2749661473530409
 21
5.0308049749235124
 31
0.0
  0
LINE
  5
CD12E
  8
025
 10
0.2749661473531404
 20
5.0308049749233978
 30
0.0
 11
0.0198462034221763
 21
5.0925086523999417
 31
0.0
  0
LINE
  5
CD12F
  8
025
 10
-0.0000001000094301
 20
0.2733295877919488
 30
0.0
 11
-0.0000001000094301
 21
1.14703669191013
 31
0.0
  0
LINE
  5
CD130
  8
025
 10
0.2343284124368381
 20
1.0124282144818999
 30
0.0
 11
0.2343284124367386
 21
1.38590146051186
 31
0.0
  0
LINE
  5
CD131
  8
025
 10
0.5313249219870926
 20
0.9405962104661682
 30
0.0
 11
0.5313249219869931
 21
1.3327552211806899
 31
0.0
  0
LINE
  5
CD132
  8
025
 10
0.5313249219871921
 20
0.9405962104661682
 30
0.0
 11
0.2343284124368381
 21
1.0124282144818999
 31
0.0
  0
ARC
  5
CD133
  8
025
 10
0.371059118161142
 20
1.592039280717074
 30
0.0
 40
0.0951775710152387
 50
38.183971147131302
 51
158.24904754341389
  0
ARC
  5
CD134
  8
025
 10
0.0297409591898941
 20
1.3699057507620289
 30
0.0
 40
0.5021050440105496
 50
22.130003065558579
 51
34.027207355544313
  0
ARC
  5
CD135
  8
025
 10
1.2367997942015729
 20
1.310750258793774
 30
0.0
 40
1.0052843251425221
 50
161.6455103864364
 51
175.71278769445371
  0
ARC
  5
CD136
  8
025
 10
-0.704298889308447
 20
1.2497204182611761
 30
0.0
 40
1.2384106675639439
 50
3.844537043720297
 51
14.46462793712257
  0
ARC
  5
CD137
  8
025
 10
8.8309850015338895
 20
1.277902227677628
 30
0.0
 40
8.832292839063081
 50
174.67668343745811
 51
180.98597647069141
  0
ARC
  5
CD138
  8
025
 10
0.6540046388921184
 20
2.0792064192129649
 30
0.0
 40
0.6174849073933837
 50
141.5368561519617
 51
152.01504124141351
  0
ARC
  5
CD139
  8
025
 10
0.3143506801997091
 20
2.3529986119577582
 30
0.0
 40
0.1809778547936378
 50
70.399743720205791
 51
141.4142278388704
  0
ARC
  5
CD13A
  8
025
 10
0.2270150205803958
 20
2.1796259838052658
 30
0.0
 40
0.3735506362003468
 50
16.581886490663031
 51
68.146956434636451
  0
ARC
  5
CD13B
  8
025
 10
-1.2042694436731829
 20
1.6443935844997379
 30
0.0
 40
1.901232126423404
 50
5.3262775600673686
 51
19.52599257429317
  0
ARC
  5
CD13C
  8
025
 10
1.4159813131825409
 20
1.8818278748488519
 30
0.0
 40
1.3950700015992361
 50
159.56298632537039
 51
171.7316922401682
  0
LINE
  5
CD13D
  8
025
 10
0.4311623116630159
 20
3.706686237026843
 30
0.0
 11
0.4311623116631154
 21
4.7046098586938001
 31
0.0
  0
LINE
  5
CD13E
  8
025
 10
0.665456350048757
 20
3.6500195430924971
 30
0.0
 11
0.6654563500486576
 21
4.6479431647596519
 31
0.0
  0
LINE
  5
CD13F
  8
025
 10
0.4311623116631154
 20
3.7066862370267302
 30
0.0
 11
0.2749661473530409
 21
3.744464066533737
 31
0.0
  0
LINE
  5
CD140
  8
025
 10
0.0198462034223894
 20
3.0447462339913889
 30
0.0
 11
0.0198462034221763
 21
5.0925086523999417
 31
0.0
  0
LINE
  5
CD141
  8
025
 10
0.0198462034223894
 20
6.2375566555197386
 30
0.0
 11
0.0198462034223894
 21
7.159925705831454
 31
0.0
  0
LINE
  5
CD142
  8
025
 10
0.4210142232531382
 20
6.5626170372078141
 30
0.0
 11
0.7383480598575574
 21
6.7287737670212371
 31
0.0
  0
LINE
  5
CD143
  8
025
 10
0.7383480598575574
 20
6.2635115514636084
 30
0.0
 11
0.4210142232529393
 21
6.562617037208013
 31
0.0
  0
LINE
  5
CD144
  8
025
 10
0.7383480598575574
 20
6.2635115514636084
 30
0.0
 11
0.7383480598575574
 21
6.7287737670211243
 31
0.0
  0
LINE
  5
CD145
  8
025
 10
0.0198462034224889
 20
8.3034937387155026
 30
0.0
 11
0.0198462034223894
 21
9.2686977670022372
 31
0.0
  0
LINE
  5
CD146
  8
025
 10
0.6836629371637742
 20
9.8777633219253271
 30
0.0
 11
0.0198462034223894
 21
9.2686977670022372
 31
0.0
  0
LINE
  5
CD147
  8
025
 10
0.0198462034223894
 20
10.038314994253231
 30
0.0
 11
0.0198462034221763
 21
10.805290803565549
 31
0.0
  0
LINE
  5
CD148
  8
025
 10
0.0198462034224889
 20
8.5334047951735954
 30
0.0
 11
0.0190513215018911
 21
8.5326754746044742
 31
0.0
  0
LINE
  5
CD149
  8
025
 10
0.6836629371637742
 20
9.8777633219253271
 30
0.0
 11
0.0198462034223894
 21
10.038314994253231
 31
0.0
  0
LINE
  5
CD14A
  8
025
 10
1.130109179932119
 20
5.89425404848373
 30
0.0
 11
0.9934684199484706
 21
6.0230458638309576
 31
0.0
  0
LINE
  5
CD14B
  8
025
 10
1.1319067482746299
 20
4.8235440856291234
 30
0.0
 11
0.8424788360644157
 21
4.8935455377796302
 31
0.0
  0
LINE
  5
CD14C
  8
025
 10
1.130109179932119
 20
5.1910696169921939
 30
0.0
 11
1.130109179932119
 21
5.89425404848373
 31
0.0
  0
LINE
  5
CD14D
  8
025
 10
1.130109179932006
 20
1.579240611959875
 30
0.0
 11
1.130109179932006
 21
2.4860456397964859
 31
0.0
  0
LINE
  5
CD14E
  8
025
 10
0.8424788360645152
 20
3.6072046293900542
 30
0.0
 11
0.8424788360644157
 21
4.8935455377797146
 31
0.0
  0
LINE
  5
CD14F
  8
025
 10
1.130109179932119
 20
2.7762164296916292
 30
0.0
 11
1.1301091799319061
 21
4.8239788481003236
 31
0.0
  0
LINE
  5
CD150
  8
025
 10
1.130109179932006
 20
6.9339007943688378
 30
0.0
 11
1.130109179932006
 21
7.7412619647806764
 31
0.0
  0
LINE
  5
CD151
  8
025
 10
0.9934684199483712
 20
6.8623553768333352
 30
0.0
 11
1.130109179932006
 21
6.9339007943688378
 31
0.0
  0
LINE
  5
CD152
  8
025
 10
0.9934684199484706
 20
6.0230458638309576
 30
0.0
 11
0.9934684199485701
 21
6.8623553768333352
 31
0.0
  0
LINE
  5
CD153
  8
025
 10
1.130109179932119
 20
8.0349639344159698
 30
0.0
 11
1.130109179932119
 21
8.7562837507556992
 31
0.0
  0
LINE
  5
CD154
  8
025
 10
1.1301091799322189
 20
9.5520939928492492
 30
0.0
 11
1.130109179932119
 21
10.536760999265621
 31
0.0
  0
ENDBLK
  5
CD156
  8
0
  0
BLOCK
  8
0
  2
A$C12DE4CDB
 70
     0
 10
0.0
 20
0.0
 30
0.0
  3
A$C12DE4CDB
  1

  0
INSERT
  5
CD158
  8
BEM1
  2
A$C36291E6D
 10
-0.0000000571691601
 20
0.0000007463299028
 30
0.0
 41
1.563724772017242
 42
1.563724772017242
 43
1.563724772017242
  0
ENDBLK
  5
CD15A
  8
0
  0
BLOCK
  8
0
  2
A$C4A626044
 70
     0
 10
0.0
 20
0.0
 30
0.0
  3
A$C4A626044
  1

  0
INSERT
  5
CD15C
  8
035
  2
A$C12DE4CDB
 10
92.573755954259141
 20
171.4540136025133
 30
0.0
 41
0.5600000000000001
 42
0.5600000000000001
 43
0.5600000000000001
  0
INSERT
  5
CD15D
  8
BEM1
 66
     1
  2
ZKOPF-REAN
 10
199.99999998529279
 20
-0.0000000171738748
 30
0.0
  0
ATTRIB
  5
CD15E
  8
0
 62
     4
 10
184.8333333186261
 20
36.999999982826132
 30
0.0
 40
2.5
  1
Battlogg
  7
SCRIPTS
 72
     1
 11
191.49999998529279
 21
36.999999982826132
 31
0.0
  2
NAME
 70
     0
  0
ATTRIB
  5
CD15F
  8
0
 62
     4
 10
170.97916665195939
 20
36.999999982826132
 30
0.0
 40
2.5
  1
01.02.01
 41
0.7
 51
15.0
 72
     1
 11
175.49999998529279
 21
36.999999982826132
 31
0.0
  2
DATE
 70
     0
  0
ATTRIB
  5
CD160
  8
0
 62
     4
 10
119.4999999852928
 20
35.999999982826118
 30
0.0
 40
2.5
  1

 41
0.7
 51
15.0
 72
     1
 11
119.4999999852928
 21
35.999999982826118
 31
0.0
  2
WERKSTOFF
 70
     0
  0
ATTRIB
  5
CD161
  8
0
 62
     2
 10
96.333333318626117
 20
12.49999998282612
 30
0.0
 40
5.0
  1
NYS 352
 41
0.7
 51
15.0
 72
     1
 11
107.9999999852928
 21
12.49999998282612
 31
0.0
  2
BENENNUNG
 70
     0
  0
ATTRIB
  5
CD162
  8
0
 62
     3
 10
90.951210050080832
 20
21.08219143335306
 30
0.0
 40
3.5
  1
Phono ("RCA") Type
 41
0.7
 51
15.0
 72
     1
 11
110.9595433834142
 21
21.08219143335306
 31
0.0
  2
TEIL
 70
     0
  0
ATTRIB
  5
CD163
  8
0
 62
     3
 10
164.54561423604969
 20
1.9765409993639189
 30
0.0
 40
3.5
  1
3102 ST 22 42
 41
0.7
 51
15.0
 72
     1
 11
179.44978090271641
 21
1.9765409993639189
 31
0.0
  2
NUMMER
 70
     0
  0
ATTRIB
  5
CD164
  8
0
 62
     2
 10
137.10066168115
 20
34.656056215760657
 30
0.0
 40
5.0
  1
1:1
 41
0.7
 51
15.0
 72
     1
 11
139.43399501448329
 21
34.656056215760657
 31
0.0
  2
MASS
 70
     0
  0
ATTRIB
  5
CD165
  8
0
 62
     3
 10
139.5192990393127
 20
28.21045052200143
 30
0.0
 40
3.5
  1

 41
0.7
 51
15.0
 72
     1
 11
139.5192990393127
 21
28.21045052200143
 31
0.0
  2
MASS2
 70
     0
  0
ATTRIB
  5
CD166
  8
0
 62
     4
 10
118.9999999852928
 20
28.999999982826129
 30
0.0
 40
2.5
  1

 41
0.7
 51
15.0
 72
     1
 11
118.9999999852928
 21
28.999999982826129
 31
0.0
  2
TEIL
 70
     0
  0
ATTRIB
  5
CD167
  8
0
 62
     3
 10
92.288548044730916
 20
59.004318730255562
 30
0.0
 40
3.5
  1

 41
0.7
 51
15.0
  2
TOL
 70
     0
  0
ATTRIB
  5
CD168
  8
0
 62
     3
 10
92.288548044730916
 20
54.004318730255562
 30
0.0
 40
3.5
  1

 41
0.7
 51
15.0
  2
RADIEN
 70
     0
  0
ATTRIB
  5
CD169
  8
0
 62
     3
 10
92.288548044730916
 20
49.004318730255562
 30
0.0
 40
3.5
  1

 41
0.7
 51
15.0
  2
FACETTE
 70
     0
  0
ATTRIB
  5
CD16A
  8
0
 62
     4
 10
2.8137327269101311
 20
6.9999999828261252
 30
0.0
 40
2.5
  1

 41
0.7
 51
15.0
  2
INDEX1
 70
     0
  0
ATTRIB
  5
CD16B
  8
0
 62
     4
 10
9.6512573817424823
 20
6.9999999828261252
 30
0.0
 40
2.5
  1

 41
0.7
 51
15.0
  2
A1
 70
     0
  0
ATTRIB
  5
CD16C
  8
0
 62
     4
 10
42.651257381742482
 20
6.9999999828261252
 30
0.0
 40
2.5
  1

 41
0.7
 51
15.0
  2
DATUM1
 70
     0
  0
ATTRIB
  5
CD16D
  8
0
 62
     4
 10
55.535009847225751
 20
6.9999999828261252
 30
0.0
 40
2.5
  1

 41
0.7
 51
15.0
  2
NAME1
 70
     0
  0
ATTRIB
  5
CD16E
  8
0
 62
     4
 10
2.8137327269101311
 20
11.99999998282612
 30
0.0
 40
2.5
  1

 41
0.7
 51
15.0
  2
INDEX2
 70
     0
  0
ATTRIB
  5
CD16F
  8
0
 62
     4
 10
9.6512573817424823
 20
11.99999998282612
 30
0.0
 40
2.5
  1

 41
0.7
 51
15.0
  2
A2
 70
     0
  0
ATTRIB
  5
CD170
  8
0
 62
     4
 10
42.651257381742482
 20
11.99999998282612
 30
0.0
 40
2.5
  1

 41
0.7
 51
15.0
  2
DATUM2
 70
     0
  0
ATTRIB
  5
CD171
  8
0
 62
     4
 10
55.535009847225751
 20
11.99999998282612
 30
0.0
 40
2.5
  1

 41
0.7
 51
15.0
  2
NAME2
 70
     0
  0
ATTRIB
  5
CD172
  8
0
 62
     4
 10
2.8137327269101311
 20
16.999999982826122
 30
0.0
 40
2.5
  1

 41
0.7
 51
15.0
  2
INDEX3
 70
     0
  0
ATTRIB
  5
CD173
  8
0
 62
     4
 10
9.6512573817424823
 20
16.999999982826122
 30
0.0
 40
2.5
  1

 41
0.7
 51
15.0
  2
A3
 70
     0
  0
ATTRIB
  5
CD174
  8
0
 62
     4
 10
42.651257381742482
 20
16.999999982826122
 30
0.0
 40
2.5
  1

 41
0.7
 51
15.0
  2
DATUM3
 70
     0
  0
ATTRIB
  5
CD175
  8
0
 62
     4
 10
55.535009847225751
 20
16.999999982826122
 30
0.0
 40
2.5
  1

 41
0.7
 51
15.0
  2
NAME3
 70
     0
  0
ATTRIB
  5
CD176
  8
0
 62
     4
 10
2.8137327269101311
 20
21.999999982826129
 30
0.0
 40
2.5
  1

 41
0.7
 51
15.0
  2
INDEX4
 70
     0
  0
ATTRIB
  5
CD177
  8
0
 62
     4
 10
9.6512573817424823
 20
21.999999982826129
 30
0.0
 40
2.5
  1

 41
0.7
 51
15.0
  2
A4
 70
     0
  0
ATTRIB
  5
CD178
  8
0
 62
     4
 10
42.651257381742482
 20
21.999999982826129
 30
0.0
 40
2.5
  1

 41
0.7
 51
15.0
  2
DATUM4
 70
     0
  0
ATTRIB
  5
CD179
  8
0
 62
     4
 10
55.535009847225751
 20
21.999999982826129
 30
0.0
 40
2.5
  1

 41
0.7
 51
15.0
  2
NAME4
 70
     0
  0
ATTRIB
  5
CD17A
  8
0
 62
     4
 10
2.8137327269101311
 20
26.999999982826129
 30
0.0
 40
2.5
  1

 41
0.7
 51
15.0
  2
INDEX5
 70
     0
  0
ATTRIB
  5
CD17B
  8
0
 62
     4
 10
9.6512573817424823
 20
26.999999982826129
 30
0.0
 40
2.5
  1

 41
0.7
 51
15.0
  2
A5
 70
     0
  0
ATTRIB
  5
CD17C
  8
0
 62
     4
 10
42.651257381742482
 20
26.999999982826129
 30
0.0
 40
2.5
  1

 41
0.7
 51
15.0
  2
DATUM5
 70
     0
  0
ATTRIB
  5
CD17D
  8
0
 62
     4
 10
55.535009847225751
 20
26.999999982826129
 30
0.0
 40
2.5
  1

 41
0.7
 51
15.0
  2
NAME5
 70
     0
  0
ATTRIB
  5
CD17E
  8
0
 62
     4
 10
2.8137327269101311
 20
31.999999982826129
 30
0.0
 40
2.5
  1

 41
0.7
 51
15.0
  2
INDEX6
 70
     0
  0
ATTRIB
  5
CD17F
  8
0
 62
     4
 10
9.6512573817424823
 20
31.999999982826129
 30
0.0
 40
2.5
  1

 41
0.7
 51
15.0
  2
A6
 70
     0
  0
ATTRIB
  5
CD180
  8
0
 62
     4
 10
42.651257381742482
 20
31.999999982826129
 30
0.0
 40
2.5
  1

 41
0.7
 51
15.0
  2
DATUM6
 70
     0
  0
ATTRIB
  5
CD181
  8
0
 62
     4
 10
55.535009847225751
 20
31.999999982826129
 30
0.0
 40
2.5
  1

 41
0.7
 51
15.0
  2
NAME6
 70
     0
  0
ATTRIB
  5
CD182
  8
0
 62
     4
 10
2.8137327269101311
 20
36.999999982826132
 30
0.0
 40
2.5
  1

 41
0.7
 51
15.0
  2
INDEX7
 70
     0
  0
ATTRIB
  5
CD183
  8
0
 62
     4
 10
9.6512573817424823
 20
36.999999982826132
 30
0.0
 40
2.5
  1

 41
0.7
 51
15.0
  2
A7
 70
     0
  0
ATTRIB
  5
CD184
  8
0
 62
     4
 10
42.651257381742482
 20
36.999999982826132
 30
0.0
 40
2.5
  1

 41
0.7
 51
15.0
  2
DATUM7
 70
     0
  0
ATTRIB
  5
CD185
  8
0
 62
     4
 10
55.535009847225751
 20
36.999999982826132
 30
0.0
 40
2.5
  1

 41
0.7
 51
15.0
  2
NAME7
 70
     0
  0
ATTRIB
  5
CD186
  8
0
 62
     4
 10
2.8137327269101311
 20
41.999999982826132
 30
0.0
 40
2.5
  1

 41
0.7
 51
15.0
  2
INDEX8
 70
     0
  0
ATTRIB
  5
CD187
  8
0
 62
     4
 10
9.6512573817424823
 20
41.999999982826132
 30
0.0
 40
2.5
  1

 41
0.7
 51
15.0
  2
A8
 70
     0
  0
ATTRIB
  5
CD188
  8
0
 62
     4
 10
42.651257381742482
 20
41.999999982826132
 30
0.0
 40
2.5
  1

 41
0.7
 51
15.0
  2
DATUM8
 70
     0
  0
ATTRIB
  5
CD189
  8
0
 62
     4
 10
55.535009847225751
 20
41.999999982826132
 30
0.0
 40
2.5
  1

 41
0.7
 51
15.0
  2
NAME8
 70
     0
  0
SEQEND
  5
CD18A
  8
BEM1
  0
ENDBLK
  5
CD18C
  8
0
  0
BLOCK
  8
0
  2
*U21
 70
     1
 10
0.0
 20
0.0
 30
0.0
  3
*U21
  1

  0
TEXT
  5
CD46B
  8
BEM1
 62
     3
 10
94.905175714966461
 20
126.0735725177137
 30
0.0
 40
3.5
  1
62.2
 41
0.7
 51
15.0
  0
ENDBLK
  5
CD46D
  8
0
  0
BLOCK
  8
0
  2
*U22
 70
     1
 10
0.0
 20
0.0
 30
0.0
  3
*U22
  1

  0
TEXT
  5
CD46F
  8
BEM1
 62
     3
 10
151.34921607669639
 20
152.9947455341933
 30
0.0
 40
3.5
  1
40.5
 50
90.0
 41
0.7
 51
15.0
  0
ENDBLK
  5
CD471
  8
0
  0
BLOCK
  8
0
  2
*U23
 70
     1
 10
0.0
 20
0.0
 30
0.0
  3
*U23
  1

  0
TEXT
  5
CD473
  8
BEM1
 62
     3
 10
150.6992160766963
 20
220.77058889274031
 30
0.0
 40
3.5
  1
15.6
 50
90.0
 41
0.7
 51
15.0
  0
ENDBLK
  5
CD475
  8
0
  0
BLOCK
  8
0
  2
*U24
 70
     1
 10
0.0
 20
0.0
 30
0.0
  3
*U24
  1

  0
TEXT
  5
CD477
  8
BEM1
 62
     3
 10
150.6992160766963
 20
197.78573468208461
 30
0.0
 40
3.5
  1
1.5
 50
90.0
 41
0.7
 51
15.0
  0
ENDBLK
  5
CD479
  8
0
  0
BLOCK
  8
0
  2
*U25
 70
     1
 10
0.0
 20
0.0
 30
0.0
  3
*U25
  1

  0
TEXT
  5
CD47E
  8
BEM1
 62
     3
 10
57.907019584985157
 20
213.01879819103249
 30
0.0
 40
3.5
  1
6.5
 50
90.0
 41
0.7
 51
15.0
  0
ENDBLK
  5
CD480
  8
0
  0
BLOCK
  8
0
  2
*U26
 70
     1
 10
0.0
 20
0.0
 30
0.0
  3
*U26
  1

  0
TEXT
  5
CD482
  8
BEM1
 62
     3
 10
57.907019584985157
 20
153.25520669178439
 30
0.0
 40
3.5
  1
21.3
 50
90.0
 41
0.7
 51
15.0
  0
ENDBLK
  5
CD484
  8
0
  0
BLOCK
  8
0
  2
*U27
 70
     1
 10
0.0
 20
0.0
 30
0.0
  3
*U27
  1

  0
TEXT
  5
CD496
  8
BEM1
 62
     4
 10
57.907019584985157
 20
220.55380180102
 30
0.0
 40
2.5
  1
[0.256"]
 50
90.0
 41
0.7
 51
15.0
  0
ENDBLK
  5
CD498
  8
0
  0
BLOCK
  8
0
  2
*U28
 70
     1
 10
0.0
 20
0.0
 30
0.0
  3
*U28
  1

  0
TEXT
  5
CD49A
  8
BEM1
 62
     4
 10
57.907019584985157
 20
162.51954166217789
 30
0.0
 40
2.5
  1
[0.834"]
 50
90.0
 41
0.7
 51
15.0
  0
ENDBLK
  5
CD49C
  8
0
  0
BLOCK
  8
0
  2
*U29
 70
     1
 10
0.0
 20
0.0
 30
0.0
  3
*U29
  1

  0
TEXT
  5
CD49E
  8
BEM1
 62
     4
 10
150.6992160766963
 20
229.8442529144848
 30
0.0
 40
2.5
  1
[0.615"]
 50
90.0
 41
0.7
 51
15.0
  0
ENDBLK
  5
CD4A0
  8
0
  0
BLOCK
  8
0
  2
*U30
 70
     1
 10
0.0
 20
0.0
 30
0.0
  3
*U30
  1

  0
TEXT
  5
CD4A2
  8
BEM1
 62
     4
 10
150.84921607669639
 20
162.48721325152269
 30
0.0
 40
2.5
  1
[1.595"]
 50
90.0
 41
0.7
 51
15.0
  0
ENDBLK
  5
CD4A4
  8
0
  0
BLOCK
  8
0
  2
*U31
 70
     1
 10
0.0
 20
0.0
 30
0.0
  3
*U31
  1

  0
TEXT
  5
CD4A6
  8
BEM1
 62
     4
 10
150.6992160766963
 20
204.46212159456189
 30
0.0
 40
2.5
  1
[.059"]
 50
90.0
 41
0.7
 51
15.0
  0
ENDBLK
  5
CD4A8
  8
0
  0
BLOCK
  8
0
  2
*U32
 70
     1
 10
0.0
 20
0.0
 30
0.0
  3
*U32
  1

  0
TEXT
  5
CD4AA
  8
BEM1
 62
     4
 10
104.30427050358639
 20
126.0735725177137
 30
0.0
 40
2.5
  1
[2.450"]
 41
0.7
 51
15.0
  0
ENDBLK
  5
CD4AC
  8
0
  0
ENDSEC
  0
SECTION
  2
ENTITIES
  0
INSERT
  5
30
  8
ASHADE
 62
     1
  2
AVE_RENDER
 10
0.0
 20
0.0
 30
0.0
1001
AVE_RENDER
1002
{
1070
     2
1000
Pref
1070
    40
1070
    20
1070
     1
1070
     0
1000

1070
    10
1070
     0
1070
    30
1040
1.0
1070
     1
1040
0.3
1040
0.7
1040
0.0
1040
10.0
1010
-1.0
1020
-1.0
1030
-1.0
1040
0.3
1070
    49
1002
}
  0
INSERT
  5
31
  8
ASHADE
 62
     3
  2
AVE_RENDER
 10
0.0
 20
0.0
 30
0.0
1001
AVE_RENDER
1002
{
1070
     0
1000
Full Opt
1070
     0
1070
     1
1070
     1
1070
     1
1070
     0
1070
     0
1070
     0
1070
     1
1070
     1
1040
0.0001
1040
0.0001
1002
}
  0
INSERT
  5
32
  8
ASHADE
 62
     4
  2
AVE_RENDER
 10
0.0
 20
0.0
 30
0.0
1001
AVE_RENDER
1002
{
1070
     0
1000
Quick Opt
1070
     0
1070
     1
1070
     1
1070
     1
1070
     1
1070
     0
1070
     1
1002
}
  0
INSERT
  5
36
  8
05
  2
NT_1
 10
98.709341459344387
 20
147.8406513925157
 30
0.0
 41
32.616999881868431
 42
-6.863009327815802
 43
32.616999881868431
  0
INSERT
  5
5EDB
  8
ASHADE
 62
     1
  2
AVE_RENDER
 10
139.2584724732869
 20
319.74439187690967
 30
0.0
1001
AVE_RENDER
1002
{
1070
     2
1000
Pref
1070
    40
1070
    20
1070
     1
1070
     0
1000

1070
    10
1070
     0
1070
    30
1040
1.0
1070
     1
1040
0.3
1040
0.7
1040
0.0
1040
10.0
1010
-1.0
1020
-1.0
1030
-1.0
1040
0.3
1070
    49
1002
}
  0
INSERT
  5
5EDC
  8
ASHADE
 62
     3
  2
AVE_RENDER
 10
139.2584724732869
 20
319.74439187690967
 30
0.0
1001
AVE_RENDER
1002
{
1070
     0
1000
Full Opt
1070
     0
1070
     1
1070
     1
1070
     1
1070
     0
1070
     0
1070
     0
1070
     1
1070
     1
1040
0.0001
1040
0.0001
1002
}
  0
INSERT
  5
5EDD
  8
ASHADE
 62
     4
  2
AVE_RENDER
 10
139.2584724732869
 20
319.74439187690967
 30
0.0
1001
AVE_RENDER
1002
{
1070
     0
1000
Quick Opt
1070
     0
1070
     1
1070
     1
1070
     1
1070
     1
1070
     0
1070
     1
1002
}
  0
INSERT
  5
5EDE
  8
05
  2
NT_1
 10
237.96781393263129
 20
467.5850432694254
 30
0.0
 41
32.616999881868431
 42
-6.863009327815802
 43
32.616999881868431
  0
TEXT
  5
6557
  8
035
 10
742.33535959621668
 20
834.37181105723107
 30
0.0
 40
3.5
  1
  
 41
0.7
 51
15.0
  0
INSERT
  5
6C6B
  8
ASHADE
 62
     1
  2
AVE_RENDER
 10
14.10550881943845
 20
318.02548562991842
 30
0.0
1001
AVE_RENDER
1002
{
1070
     2
1000
Pref
1070
    40
1070
    20
1070
     1
1070
     0
1000

1070
    10
1070
     0
1070
    30
1040
1.0
1070
     1
1040
0.3
1040
0.7
1040
0.0
1040
10.0
1010
-1.0
1020
-1.0
1030
-1.0
1040
0.3
1070
    49
1002
}
  0
INSERT
  5
6C6C
  8
ASHADE
 62
     3
  2
AVE_RENDER
 10
14.10550881943845
 20
318.02548562991842
 30
0.0
1001
AVE_RENDER
1002
{
1070
     0
1000
Full Opt
1070
     0
1070
     1
1070
     1
1070
     1
1070
     0
1070
     0
1070
     0
1070
     1
1070
     1
1040
0.0001
1040
0.0001
1002
}
  0
INSERT
  5
6C6D
  8
ASHADE
 62
     4
  2
AVE_RENDER
 10
14.10550881943845
 20
318.02548562991842
 30
0.0
1001
AVE_RENDER
1002
{
1070
     0
1000
Quick Opt
1070
     0
1070
     1
1070
     1
1070
     1
1070
     1
1070
     0
1070
     1
1002
}
  0
INSERT
  5
6C71
  8
05
  2
NT_1
 10
112.8148502787828
 20
465.86613702243409
 30
0.0
 41
32.616999881868431
 42
-6.863009327815802
 43
32.616999881868431
  0
INSERT
  5
CB16
  8
ASHADE
 62
     1
  2
AVE_RENDER
 10
153.36398129272541
 20
637.76987750682815
 30
0.0
1001
AVE_RENDER
1002
{
1070
     2
1000
Pref
1070
    40
1070
    20
1070
     1
1070
     0
1000

1070
    10
1070
     0
1070
    30
1040
1.0
1070
     1
1040
0.3
1040
0.7
1040
0.0
1040
10.0
1010
-1.0
1020
-1.0
1030
-1.0
1040
0.3
1070
    49
1002
}
  0
INSERT
  5
CB17
  8
ASHADE
 62
     3
  2
AVE_RENDER
 10
153.36398129272541
 20
637.76987750682815
 30
0.0
1001
AVE_RENDER
1002
{
1070
     0
1000
Full Opt
1070
     0
1070
     1
1070
     1
1070
     1
1070
     0
1070
     0
1070
     0
1070
     1
1070
     1
1040
0.0001
1040
0.0001
1002
}
  0
INSERT
  5
CB18
  8
ASHADE
 62
     4
  2
AVE_RENDER
 10
153.36398129272541
 20
637.76987750682815
 30
0.0
1001
AVE_RENDER
1002
{
1070
     0
1000
Quick Opt
1070
     0
1070
     1
1070
     1
1070
     1
1070
     1
1070
     0
1070
     1
1002
}
  0
INSERT
  5
CB19
  8
05
  2
NT_1
 10
252.0733227520698
 20
785.61052889934388
 30
0.0
 41
32.616999881868431
 42
-6.863009327815802
 43
32.616999881868431
  0
TEXT
  5
CE91
  8
025
 10
457.33314370182939
 20
249.37015260716711
 30
0.0
 40
2.5
  1

 41
0.9
 51
10.0
  7
HELV
  0
INSERT
  5
D021
  8
ASHADE
 62
     1
  2
AVE_RENDER
 10
177.79262395928001
 20
318.45175079003621
 30
0.0
1001
AVE_RENDER
1002
{
1070
     2
1000
Pref
1070
    40
1070
    20
1070
     1
1070
     0
1000

1070
    10
1070
     0
1070
    30
1040
1.0
1070
     1
1040
0.3
1040
0.7
1040
0.0
1040
10.0
1010
-1.0
1020
-1.0
1030
-1.0
1040
0.3
1070
    49
1002
}
  0
INSERT
  5
D022
  8
ASHADE
 62
     3
  2
AVE_RENDER
 10
177.79262395928001
 20
318.45175079003621
 30
0.0
1001
AVE_RENDER
1002
{
1070
     0
1000
Full Opt
1070
     0
1070
     1
1070
     1
1070
     1
1070
     0
1070
     0
1070
     0
1070
     1
1070
     1
1040
0.0001
1040
0.0001
1002
}
  0
INSERT
  5
D023
  8
ASHADE
 62
     4
  2
AVE_RENDER
 10
177.79262395928001
 20
318.45175079003621
 30
0.0
1001
AVE_RENDER
1002
{
1070
     0
1000
Quick Opt
1070
     0
1070
     1
1070
     1
1070
     1
1070
     1
1070
     0
1070
     1
1002
}
  0
INSERT
  5
D027
  8
05
  2
NT_1
 10
276.50196541862442
 20
466.29240218255183
 30
0.0
 41
32.616999881868431
 42
-6.863009327815802
 43
32.616999881868431
  0
INSERT
  5
F83A
  8
ASHADE
 62
     1
  2
AVE_RENDER
 10
483.64412677646112
 20
320.06243686168682
 30
0.0
1001
AVE_RENDER
1002
{
1070
     2
1000
Pref
1070
    40
1070
    20
1070
     1
1070
     0
1000

1070
    10
1070
     0
1070
    30
1040
1.0
1070
     1
1040
0.3
1040
0.7
1040
0.0
1040
10.0
1010
-1.0
1020
-1.0
1030
-1.0
1040
0.3
1070
    49
1002
}
  0
INSERT
  5
F83B
  8
ASHADE
 62
     3
  2
AVE_RENDER
 10
483.64412677646112
 20
320.06243686168682
 30
0.0
1001
AVE_RENDER
1002
{
1070
     0
1000
Full Opt
1070
     0
1070
     1
1070
     1
1070
     1
1070
     0
1070
     0
1070
     0
1070
     1
1070
     1
1040
0.0001
1040
0.0001
1002
}
  0
INSERT
  5
F83C
  8
ASHADE
 62
     4
  2
AVE_RENDER
 10
483.64412677646112
 20
320.06243686168682
 30
0.0
1001
AVE_RENDER
1002
{
1070
     0
1000
Quick Opt
1070
     0
1070
     1
1070
     1
1070
     1
1070
     1
1070
     0
1070
     1
1002
}
  0
INSERT
  5
F840
  8
05
  2
NT_1
 10
582.35346823580539
 20
467.90308825420249
 30
0.0
 41
32.616999881868431
 42
-6.863009327815802
 43
32.616999881868431
  0
INSERT
  5
13B62
  8
025
  2
ACAD
 10
177.79262395928001
 20
318.45175079003621
 30
0.0
  0
INSERT
  5
18666
  8
ASHADE
 62
     1
  2
AVE_RENDER
 10
474.79262395927998
 20
318.45175079003621
 30
0.0
1001
AVE_RENDER
1002
{
1070
     2
1000
Pref
1070
    40
1070
    20
1070
     1
1070
     0
1000

1070
    10
1070
     0
1070
    30
1040
1.0
1070
     1
1040
0.3
1040
0.7
1040
0.0
1040
10.0
1010
-1.0
1020
-1.0
1030
-1.0
1040
0.3
1070
    49
1002
}
  0
INSERT
  5
18667
  8
ASHADE
 62
     3
  2
AVE_RENDER
 10
474.79262395927998
 20
318.45175079003621
 30
0.0
1001
AVE_RENDER
1002
{
1070
     0
1000
Full Opt
1070
     0
1070
     1
1070
     1
1070
     1
1070
     0
1070
     0
1070
     0
1070
     1
1070
     1
1040
0.0001
1040
0.0001
1002
}
  0
INSERT
  5
18668
  8
ASHADE
 62
     4
  2
AVE_RENDER
 10
474.79262395927998
 20
318.45175079003621
 30
0.0
1001
AVE_RENDER
1002
{
1070
     0
1000
Quick Opt
1070
     0
1070
     1
1070
     1
1070
     1
1070
     1
1070
     0
1070
     1
1002
}
  0
INSERT
  5
1866C
  8
05
  2
NT_1
 10
573.50196541862442
 20
466.29240218255183
 30
0.0
 41
32.616999881868431
 42
-6.863009327815802
 43
32.616999881868431
  0
INSERT
  5
1AE7F
  8
ASHADE
 62
     1
  2
AVE_RENDER
 10
780.64412677646112
 20
320.06243686168682
 30
0.0
1001
AVE_RENDER
1002
{
1070
     2
1000
Pref
1070
    40
1070
    20
1070
     1
1070
     0
1000

1070
    10
1070
     0
1070
    30
1040
1.0
1070
     1
1040
0.3
1040
0.7
1040
0.0
1040
10.0
1010
-1.0
1020
-1.0
1030
-1.0
1040
0.3
1070
    49
1002
}
  0
INSERT
  5
1AE80
  8
ASHADE
 62
     3
  2
AVE_RENDER
 10
780.64412677646112
 20
320.06243686168682
 30
0.0
1001
AVE_RENDER
1002
{
1070
     0
1000
Full Opt
1070
     0
1070
     1
1070
     1
1070
     1
1070
     0
1070
     0
1070
     0
1070
     1
1070
     1
1040
0.0001
1040
0.0001
1002
}
  0
INSERT
  5
1AE81
  8
ASHADE
 62
     4
  2
AVE_RENDER
 10
780.64412677646112
 20
320.06243686168682
 30
0.0
1001
AVE_RENDER
1002
{
1070
     0
1000
Quick Opt
1070
     0
1070
     1
1070
     1
1070
     1
1070
     1
1070
     0
1070
     1
1002
}
  0
INSERT
  5
1AE85
  8
05
  2
NT_1
 10
879.35346823580551
 20
467.90308825420249
 30
0.0
 41
32.616999881868431
 42
-6.863009327815802
 43
32.616999881868431
  0
INSERT
  5
1F1A7
  8
025
  2
ACAD
 10
474.79262395927998
 20
318.45175079003621
 30
0.0
  0
INSERT
  5
2812E
  8
ASHADE
 62
     1
  2
AVE_RENDER
 10
248.19672146903119
 20
315.77942577811808
 30
0.0
1001
AVE_RENDER
1002
{
1070
     2
1000
Pref
1070
    40
1070
    20
1070
     1
1070
     0
1000

1070
    10
1070
     0
1070
    30
1040
1.0
1070
     1
1040
0.3
1040
0.7
1040
0.0
1040
10.0
1010
-1.0
1020
-1.0
1030
-1.0
1040
0.3
1070
    49
1002
}
  0
INSERT
  5
2812F
  8
ASHADE
 62
     3
  2
AVE_RENDER
 10
248.19672146903119
 20
315.77942577811808
 30
0.0
1001
AVE_RENDER
1002
{
1070
     0
1000
Full Opt
1070
     0
1070
     1
1070
     1
1070
     1
1070
     0
1070
     0
1070
     0
1070
     1
1070
     1
1040
0.0001
1040
0.0001
1002
}
  0
INSERT
  5
28130
  8
ASHADE
 62
     4
  2
AVE_RENDER
 10
248.19672146903119
 20
315.77942577811808
 30
0.0
1001
AVE_RENDER
1002
{
1070
     0
1000
Quick Opt
1070
     0
1070
     1
1070
     1
1070
     1
1070
     1
1070
     0
1070
     1
1002
}
  0
INSERT
  5
28134
  8
05
  2
NT_1
 10
346.9060629283756
 20
463.62007717063381
 30
0.0
 41
32.616999881868431
 42
-6.863009327815802
 43
32.616999881868431
  0
INSERT
  5
2A313
  8
ASHADE
 62
     1
  2
AVE_RENDER
 10
222.35217958965109
 20
320.2332987002444
 30
0.0
1001
AVE_RENDER
1002
{
1070
     2
1000
Pref
1070
    40
1070
    20
1070
     1
1070
     0
1000

1070
    10
1070
     0
1070
    30
1040
1.0
1070
     1
1040
0.3
1040
0.7
1040
0.0
1040
10.0
1010
-1.0
1020
-1.0
1030
-1.0
1040
0.3
1070
    49
1002
}
  0
INSERT
  5
2A314
  8
ASHADE
 62
     3
  2
AVE_RENDER
 10
222.35217958965109
 20
320.2332987002444
 30
0.0
1001
AVE_RENDER
1002
{
1070
     0
1000
Full Opt
1070
     0
1070
     1
1070
     1
1070
     1
1070
     0
1070
     0
1070
     0
1070
     1
1070
     1
1040
0.0001
1040
0.0001
1002
}
  0
INSERT
  5
2A315
  8
ASHADE
 62
     4
  2
AVE_RENDER
 10
222.35217958965109
 20
320.2332987002444
 30
0.0
1001
AVE_RENDER
1002
{
1070
     0
1000
Quick Opt
1070
     0
1070
     1
1070
     1
1070
     1
1070
     1
1070
     0
1070
     1
1002
}
  0
INSERT
  5
2A319
  8
05
  2
NT_1
 10
321.06152104899547
 20
468.07395009276007
 30
0.0
 41
32.616999881868431
 42
-6.863009327815802
 43
32.616999881868431
  0
INSERT
  5
2BC33
  8
025
  2
ACAD
 10
0.0
 20
0.0
 30
0.0
  0
INSERT
  5
2C19F
  8
BEM1
  2
ACAD
 10
0.0
 20
0.0
 30
0.0
  0
TEXT
  5
2DD8B
  8
035
 10
950.78969748207055
 20
673.50153189376704
 30
0.0
 40
3.5
  1
  
 41
0.7
 51
15.0
  0
TEXT
  5
2DF0A
  8
035
 10
978.47365150412168
 20
819.61050501042905
 30
0.0
 40
3.5
  1
  
 41
0.7
 51
15.0
  0
TEXT
  5
2DF0B
  8
035
 10
928.4816663389156
 20
938.69927460151371
 30
0.0
 40
3.5
  1
  
 41
0.7
 51
15.0
  0
TEXT
  5
2DF0C
  8
035
 10
1009.084383720612
 20
848.69625894311059
 30
0.0
 40
3.5
  1
  
 41
0.7
 51
15.0
  0
TEXT
  5
2DF0D
  8
035
 10
959.09239855540591
 20
967.78502853419525
 30
0.0
 40
3.5
  1
  
 41
0.7
 51
15.0
  0
TEXT
  5
2DF0E
  8
035
 10
978.47365150412168
 20
819.61050501042905
 30
0.0
 40
3.5
  1
  
 41
0.7
 51
15.0
  0
TEXT
  5
2DF0F
  8
035
 10
928.4816663389156
 20
938.69927460151371
 30
0.0
 40
3.5
  1
  
 41
0.7
 51
15.0
  0
TEXT
  5
2DF10
  8
035
 10
1152.777740191463
 20
1044.4560359738209
 30
0.0
 40
3.5
  1
  
 41
0.7
 51
15.0
  0
TEXT
  5
2DF11
  8
035
 10
1102.785755026257
 20
1163.544805564906
 30
0.0
 40
3.5
  1
  
 41
0.7
 51
15.0
  0
INSERT
  5
2E1B5
  8
ASHADE
 62
     1
  2
AVE_RENDER
 10
244.82419402977879
 20
199.99189244064601
 30
0.0
1001
AVE_RENDER
1002
{
1070
     2
1000
Pref
1070
    40
1070
    20
1070
     1
1070
     0
1000

1070
    10
1070
     0
1070
    30
1040
1.0
1070
     1
1040
0.3
1040
0.7
1040
0.0
1040
10.0
1010
-1.0
1020
-1.0
1030
-1.0
1040
0.3
1070
    49
1002
}
  0
INSERT
  5
2E1B6
  8
ASHADE
 62
     3
  2
AVE_RENDER
 10
244.82419402977879
 20
199.99189244064601
 30
0.0
1001
AVE_RENDER
1002
{
1070
     0
1000
Full Opt
1070
     0
1070
     1
1070
     1
1070
     1
1070
     0
1070
     0
1070
     0
1070
     1
1070
     1
1040
0.0001
1040
0.0001
1002
}
  0
INSERT
  5
2E1B7
  8
ASHADE
 62
     4
  2
AVE_RENDER
 10
244.82419402977879
 20
199.99189244064601
 30
0.0
1001
AVE_RENDER
1002
{
1070
     0
1000
Quick Opt
1070
     0
1070
     1
1070
     1
1070
     1
1070
     1
1070
     0
1070
     1
1002
}
  0
INSERT
  5
2E1BB
  8
05
  2
NT_1
 10
343.53353548912321
 20
347.83254383316182
 30
0.0
 41
32.616999881868431
 42
-6.863009327815802
 43
32.616999881868431
  0
INSERT
  5
309CE
  8
ASHADE
 62
     1
  2
AVE_RENDER
 10
550.6756968469598
 20
201.6025785122967
 30
0.0
1001
AVE_RENDER
1002
{
1070
     2
1000
Pref
1070
    40
1070
    20
1070
     1
1070
     0
1000

1070
    10
1070
     0
1070
    30
1040
1.0
1070
     1
1040
0.3
1040
0.7
1040
0.0
1040
10.0
1010
-1.0
1020
-1.0
1030
-1.0
1040
0.3
1070
    49
1002
}
  0
INSERT
  5
309CF
  8
ASHADE
 62
     3
  2
AVE_RENDER
 10
550.6756968469598
 20
201.6025785122967
 30
0.0
1001
AVE_RENDER
1002
{
1070
     0
1000
Full Opt
1070
     0
1070
     1
1070
     1
1070
     1
1070
     0
1070
     0
1070
     0
1070
     1
1070
     1
1040
0.0001
1040
0.0001
1002
}
  0
INSERT
  5
309D0
  8
ASHADE
 62
     4
  2
AVE_RENDER
 10
550.6756968469598
 20
201.6025785122967
 30
0.0
1001
AVE_RENDER
1002
{
1070
     0
1000
Quick Opt
1070
     0
1070
     1
1070
     1
1070
     1
1070
     1
1070
     0
1070
     1
1002
}
  0
INSERT
  5
309D4
  8
05
  2
NT_1
 10
649.38503830630418
 20
349.44322990481243
 30
0.0
 41
32.616999881868431
 42
-6.863009327815802
 43
32.616999881868431
  0
INSERT
  5
34CF6
  8
025
  2
ACAD
 10
244.82419402977879
 20
199.99189244064601
 30
0.0
  0
INSERT
  5
397FA
  8
ASHADE
 62
     1
  2
AVE_RENDER
 10
541.82419402977882
 20
199.99189244064601
 30
0.0
1001
AVE_RENDER
1002
{
1070
     2
1000
Pref
1070
    40
1070
    20
1070
     1
1070
     0
1000

1070
    10
1070
     0
1070
    30
1040
1.0
1070
     1
1040
0.3
1040
0.7
1040
0.0
1040
10.0
1010
-1.0
1020
-1.0
1030
-1.0
1040
0.3
1070
    49
1002
}
  0
INSERT
  5
397FB
  8
ASHADE
 62
     3
  2
AVE_RENDER
 10
541.82419402977882
 20
199.99189244064601
 30
0.0
1001
AVE_RENDER
1002
{
1070
     0
1000
Full Opt
1070
     0
1070
     1
1070
     1
1070
     1
1070
     0
1070
     0
1070
     0
1070
     1
1070
     1
1040
0.0001
1040
0.0001
1002
}
  0
INSERT
  5
397FC
  8
ASHADE
 62
     4
  2
AVE_RENDER
 10
541.82419402977882
 20
199.99189244064601
 30
0.0
1001
AVE_RENDER
1002
{
1070
     0
1000
Quick Opt
1070
     0
1070
     1
1070
     1
1070
     1
1070
     1
1070
     0
1070
     1
1002
}
  0
INSERT
  5
39800
  8
05
  2
NT_1
 10
640.5335354891231
 20
347.83254383316182
 30
0.0
 41
32.616999881868431
 42
-6.863009327815802
 43
32.616999881868431
  0
INSERT
  5
3C013
  8
ASHADE
 62
     1
  2
AVE_RENDER
 10
847.67569684695991
 20
201.6025785122967
 30
0.0
1001
AVE_RENDER
1002
{
1070
     2
1000
Pref
1070
    40
1070
    20
1070
     1
1070
     0
1000

1070
    10
1070
     0
1070
    30
1040
1.0
1070
     1
1040
0.3
1040
0.7
1040
0.0
1040
10.0
1010
-1.0
1020
-1.0
1030
-1.0
1040
0.3
1070
    49
1002
}
  0
INSERT
  5
3C014
  8
ASHADE
 62
     3
  2
AVE_RENDER
 10
847.67569684695991
 20
201.6025785122967
 30
0.0
1001
AVE_RENDER
1002
{
1070
     0
1000
Full Opt
1070
     0
1070
     1
1070
     1
1070
     1
1070
     0
1070
     0
1070
     0
1070
     1
1070
     1
1040
0.0001
1040
0.0001
1002
}
  0
INSERT
  5
3C015
  8
ASHADE
 62
     4
  2
AVE_RENDER
 10
847.67569684695991
 20
201.6025785122967
 30
0.0
1001
AVE_RENDER
1002
{
1070
     0
1000
Quick Opt
1070
     0
1070
     1
1070
     1
1070
     1
1070
     1
1070
     0
1070
     1
1002
}
  0
INSERT
  5
3C019
  8
05
  2
NT_1
 10
946.3850383063043
 20
349.44322990481243
 30
0.0
 41
32.616999881868431
 42
-6.863009327815802
 43
32.616999881868431
  0
INSERT
  5
4033B
  8
025
  2
ACAD
 10
541.82419402977882
 20
199.99189244064601
 30
0.0
  0
INSERT
  5
46838
  8
ASHADE
 62
     1
  2
AVE_RENDER
 10
246.40049081017989
 20
209.83609286750331
 30
0.0
1001
AVE_RENDER
1002
{
1070
     2
1000
Pref
1070
    40
1070
    20
1070
     1
1070
     0
1000

1070
    10
1070
     0
1070
    30
1040
1.0
1070
     1
1040
0.3
1040
0.7
1040
0.0
1040
10.0
1010
-1.0
1020
-1.0
1030
-1.0
1040
0.3
1070
    49
1002
}
  0
INSERT
  5
46839
  8
ASHADE
 62
     3
  2
AVE_RENDER
 10
246.40049081017989
 20
209.83609286750331
 30
0.0
1001
AVE_RENDER
1002
{
1070
     0
1000
Full Opt
1070
     0
1070
     1
1070
     1
1070
     1
1070
     0
1070
     0
1070
     0
1070
     1
1070
     1
1040
0.0001
1040
0.0001
1002
}
  0
INSERT
  5
4683A
  8
ASHADE
 62
     4
  2
AVE_RENDER
 10
246.40049081017989
 20
209.83609286750331
 30
0.0
1001
AVE_RENDER
1002
{
1070
     0
1000
Quick Opt
1070
     0
1070
     1
1070
     1
1070
     1
1070
     1
1070
     0
1070
     1
1002
}
  0
INSERT
  5
4683E
  8
05
  2
NT_1
 10
345.1098322695243
 20
357.67674426001901
 30
0.0
 41
32.616999881868431
 42
-6.863009327815802
 43
32.616999881868431
  0
INSERT
  5
49CC2
  8
05
  2
ACAD
 10
246.40049081017989
 20
209.83609286750331
 30
0.0
  0
INSERT
  5
A6093
  8
ASHADE
 62
     1
  2
AVE_RENDER
 10
246.40049081017989
 20
419.83609286750328
 30
0.0
1001
AVE_RENDER
1002
{
1070
     2
1000
Pref
1070
    40
1070
    20
1070
     1
1070
     0
1000

1070
    10
1070
     0
1070
    30
1040
1.0
1070
     1
1040
0.3
1040
0.7
1040
0.0
1040
10.0
1010
-1.0
1020
-1.0
1030
-1.0
1040
0.3
1070
    49
1002
}
  0
INSERT
  5
A6094
  8
ASHADE
 62
     3
  2
AVE_RENDER
 10
246.40049081017989
 20
419.83609286750328
 30
0.0
1001
AVE_RENDER
1002
{
1070
     0
1000
Full Opt
1070
     0
1070
     1
1070
     1
1070
     1
1070
     0
1070
     0
1070
     0
1070
     1
1070
     1
1040
0.0001
1040
0.0001
1002
}
  0
INSERT
  5
A6095
  8
ASHADE
 62
     4
  2
AVE_RENDER
 10
246.40049081017989
 20
419.83609286750328
 30
0.0
1001
AVE_RENDER
1002
{
1070
     0
1000
Quick Opt
1070
     0
1070
     1
1070
     1
1070
     1
1070
     1
1070
     0
1070
     1
1002
}
  0
INSERT
  5
A6096
  8
05
  2
NT_1
 10
345.1098322695243
 20
567.67674426001906
 30
0.0
 41
32.616999881868431
 42
-6.863009327815802
 43
32.616999881868431
  0
INSERT
  5
A627D
  8
05
  2
ACAD
 10
246.40049081017989
 20
419.83609286750328
 30
0.0
  0
INSERT
  5
A6356
  8
ASHADE
 62
     1
  2
AVE_RENDER
 10
543.4004908101798
 20
419.83609286750328
 30
0.0
1001
AVE_RENDER
1002
{
1070
     2
1000
Pref
1070
    40
1070
    20
1070
     1
1070
     0
1000

1070
    10
1070
     0
1070
    30
1040
1.0
1070
     1
1040
0.3
1040
0.7
1040
0.0
1040
10.0
1010
-1.0
1020
-1.0
1030
-1.0
1040
0.3
1070
    49
1002
}
  0
INSERT
  5
A6357
  8
ASHADE
 62
     3
  2
AVE_RENDER
 10
543.4004908101798
 20
419.83609286750328
 30
0.0
1001
AVE_RENDER
1002
{
1070
     0
1000
Full Opt
1070
     0
1070
     1
1070
     1
1070
     1
1070
     0
1070
     0
1070
     0
1070
     1
1070
     1
1040
0.0001
1040
0.0001
1002
}
  0
INSERT
  5
A6358
  8
ASHADE
 62
     4
  2
AVE_RENDER
 10
543.4004908101798
 20
419.83609286750328
 30
0.0
1001
AVE_RENDER
1002
{
1070
     0
1000
Quick Opt
1070
     0
1070
     1
1070
     1
1070
     1
1070
     1
1070
     0
1070
     1
1002
}
  0
INSERT
  5
A6359
  8
05
  2
NT_1
 10
642.1098322695243
 20
567.67674426001906
 30
0.0
 41
32.616999881868431
 42
-6.863009327815802
 43
32.616999881868431
  0
INSERT
  5
A635A
  8
05
  2
ACAD
 10
543.4004908101798
 20
419.83609286750328
 30
0.0
  0
INSERT
  5
A635B
  8
ASHADE
 62
     1
  2
AVE_RENDER
 10
543.4004908101798
 20
419.83609286750328
 30
0.0
1001
AVE_RENDER
1002
{
1070
     2
1000
Pref
1070
    40
1070
    20
1070
     1
1070
     0
1000

1070
    10
1070
     0
1070
    30
1040
1.0
1070
     1
1040
0.3
1040
0.7
1040
0.0
1040
10.0
1010
-1.0
1020
-1.0
1030
-1.0
1040
0.3
1070
    49
1002
}
  0
INSERT
  5
A635C
  8
ASHADE
 62
     3
  2
AVE_RENDER
 10
543.4004908101798
 20
419.83609286750328
 30
0.0
1001
AVE_RENDER
1002
{
1070
     0
1000
Full Opt
1070
     0
1070
     1
1070
     1
1070
     1
1070
     0
1070
     0
1070
     0
1070
     1
1070
     1
1040
0.0001
1040
0.0001
1002
}
  0
INSERT
  5
A635D
  8
ASHADE
 62
     4
  2
AVE_RENDER
 10
543.4004908101798
 20
419.83609286750328
 30
0.0
1001
AVE_RENDER
1002
{
1070
     0
1000
Quick Opt
1070
     0
1070
     1
1070
     1
1070
     1
1070
     1
1070
     0
1070
     1
1002
}
  0
INSERT
  5
A635E
  8
05
  2
NT_1
 10
642.1098322695243
 20
567.67674426001906
 30
0.0
 41
32.616999881868431
 42
-6.863009327815802
 43
32.616999881868431
  0
INSERT
  5
A6366
  8
05
  2
ACAD
 10
543.4004908101798
 20
419.83609286750328
 30
0.0
  0
INSERT
  5
A63C1
  8
ASHADE
 62
     1
  2
AVE_RENDER
 10
562.50416543307153
 20
417.84741932227598
 30
0.0
1001
AVE_RENDER
1002
{
1070
     2
1000
Pref
1070
    40
1070
    20
1070
     1
1070
     0
1000

1070
    10
1070
     0
1070
    30
1040
1.0
1070
     1
1040
0.3
1040
0.7
1040
0.0
1040
10.0
1010
-1.0
1020
-1.0
1030
-1.0
1040
0.3
1070
    49
1002
}
  0
INSERT
  5
A63C2
  8
ASHADE
 62
     3
  2
AVE_RENDER
 10
562.50416543307153
 20
417.84741932227598
 30
0.0
1001
AVE_RENDER
1002
{
1070
     0
1000
Full Opt
1070
     0
1070
     1
1070
     1
1070
     1
1070
     0
1070
     0
1070
     0
1070
     1
1070
     1
1040
0.0001
1040
0.0001
1002
}
  0
INSERT
  5
A63C3
  8
ASHADE
 62
     4
  2
AVE_RENDER
 10
562.50416543307153
 20
417.84741932227598
 30
0.0
1001
AVE_RENDER
1002
{
1070
     0
1000
Quick Opt
1070
     0
1070
     1
1070
     1
1070
     1
1070
     1
1070
     0
1070
     1
1002
}
  0
INSERT
  5
A63C4
  8
05
  2
NT_1
 10
661.21350689241592
 20
565.68807071479171
 30
0.0
 41
32.616999881868431
 42
-6.863009327815802
 43
32.616999881868431
  0
INSERT
  5
A63F3
  8
05
  2
ACAD
 10
562.50416543307153
 20
417.84741932227598
 30
0.0
  0
TEXT
  5
A645C
  8
035
 10
1065.919528474979
 20
886.44279190053055
 30
0.0
 40
3.5
  1
  
 41
0.7
 51
15.0
  0
INSERT
  5
A6463
  8
ASHADE
 62
     1
  2
AVE_RENDER
 10
543.4004908101798
 20
419.83609286750328
 30
0.0
1001
AVE_RENDER
1002
{
1070
     2
1000
Pref
1070
    40
1070
    20
1070
     1
1070
     0
1000

1070
    10
1070
     0
1070
    30
1040
1.0
1070
     1
1040
0.3
1040
0.7
1040
0.0
1040
10.0
1010
-1.0
1020
-1.0
1030
-1.0
1040
0.3
1070
    49
1002
}
  0
INSERT
  5
A6464
  8
ASHADE
 62
     3
  2
AVE_RENDER
 10
543.4004908101798
 20
419.83609286750328
 30
0.0
1001
AVE_RENDER
1002
{
1070
     0
1000
Full Opt
1070
     0
1070
     1
1070
     1
1070
     1
1070
     0
1070
     0
1070
     0
1070
     1
1070
     1
1040
0.0001
1040
0.0001
1002
}
  0
INSERT
  5
A6465
  8
ASHADE
 62
     4
  2
AVE_RENDER
 10
543.4004908101798
 20
419.83609286750328
 30
0.0
1001
AVE_RENDER
1002
{
1070
     0
1000
Quick Opt
1070
     0
1070
     1
1070
     1
1070
     1
1070
     1
1070
     0
1070
     1
1002
}
  0
INSERT
  5
A6466
  8
05
  2
NT_1
 10
642.1098322695243
 20
567.67674426001906
 30
0.0
 41
32.616999881868431
 42
-6.863009327815802
 43
32.616999881868431
  0
INSERT
  5
A6652
  8
05
  2
ACAD
 10
543.4004908101798
 20
419.83609286750328
 30
0.0
  0
INSERT
  5
A6797
  8
ASHADE
 62
     1
  2
AVE_RENDER
 10
840.4004908101798
 20
419.83609286750328
 30
0.0
1001
AVE_RENDER
1002
{
1070
     2
1000
Pref
1070
    40
1070
    20
1070
     1
1070
     0
1000

1070
    10
1070
     0
1070
    30
1040
1.0
1070
     1
1040
0.3
1040
0.7
1040
0.0
1040
10.0
1010
-1.0
1020
-1.0
1030
-1.0
1040
0.3
1070
    49
1002
}
  0
INSERT
  5
A6798
  8
ASHADE
 62
     3
  2
AVE_RENDER
 10
840.4004908101798
 20
419.83609286750328
 30
0.0
1001
AVE_RENDER
1002
{
1070
     0
1000
Full Opt
1070
     0
1070
     1
1070
     1
1070
     1
1070
     0
1070
     0
1070
     0
1070
     1
1070
     1
1040
0.0001
1040
0.0001
1002
}
  0
INSERT
  5
A6799
  8
ASHADE
 62
     4
  2
AVE_RENDER
 10
840.4004908101798
 20
419.83609286750328
 30
0.0
1001
AVE_RENDER
1002
{
1070
     0
1000
Quick Opt
1070
     0
1070
     1
1070
     1
1070
     1
1070
     1
1070
     0
1070
     1
1002
}
  0
INSERT
  5
A679A
  8
05
  2
NT_1
 10
939.10983226952419
 20
567.67674426001906
 30
0.0
 41
32.616999881868431
 42
-6.863009327815802
 43
32.616999881868431
  0
INSERT
  5
A67B9
  8
05
  2
ACAD
 10
840.4004908101798
 20
419.83609286750328
 30
0.0
  0
INSERT
  5
A67C1
  8
ASHADE
 62
     1
  2
AVE_RENDER
 10
840.4004908101798
 20
419.83609286750328
 30
0.0
1001
AVE_RENDER
1002
{
1070
     2
1000
Pref
1070
    40
1070
    20
1070
     1
1070
     0
1000

1070
    10
1070
     0
1070
    30
1040
1.0
1070
     1
1040
0.3
1040
0.7
1040
0.0
1040
10.0
1010
-1.0
1020
-1.0
1030
-1.0
1040
0.3
1070
    49
1002
}
  0
INSERT
  5
A67C2
  8
ASHADE
 62
     3
  2
AVE_RENDER
 10
840.4004908101798
 20
419.83609286750328
 30
0.0
1001
AVE_RENDER
1002
{
1070
     0
1000
Full Opt
1070
     0
1070
     1
1070
     1
1070
     1
1070
     0
1070
     0
1070
     0
1070
     1
1070
     1
1040
0.0001
1040
0.0001
1002
}
  0
INSERT
  5
A67C3
  8
ASHADE
 62
     4
  2
AVE_RENDER
 10
840.4004908101798
 20
419.83609286750328
 30
0.0
1001
AVE_RENDER
1002
{
1070
     0
1000
Quick Opt
1070
     0
1070
     1
1070
     1
1070
     1
1070
     1
1070
     0
1070
     1
1002
}
  0
INSERT
  5
A67C4
  8
05
  2
NT_1
 10
939.10983226952419
 20
567.67674426001906
 30
0.0
 41
32.616999881868431
 42
-6.863009327815802
 43
32.616999881868431
  0
INSERT
  5
A67CC
  8
05
  2
ACAD
 10
840.4004908101798
 20
419.83609286750328
 30
0.0
  0
INSERT
  5
A682D
  8
ASHADE
 62
     1
  2
AVE_RENDER
 10
543.4004908101798
 20
209.83609286750331
 30
0.0
1001
AVE_RENDER
1002
{
1070
     2
1000
Pref
1070
    40
1070
    20
1070
     1
1070
     0
1000

1070
    10
1070
     0
1070
    30
1040
1.0
1070
     1
1040
0.3
1040
0.7
1040
0.0
1040
10.0
1010
-1.0
1020
-1.0
1030
-1.0
1040
0.3
1070
    49
1002
}
  0
INSERT
  5
A682E
  8
ASHADE
 62
     3
  2
AVE_RENDER
 10
543.4004908101798
 20
209.83609286750331
 30
0.0
1001
AVE_RENDER
1002
{
1070
     0
1000
Full Opt
1070
     0
1070
     1
1070
     1
1070
     1
1070
     0
1070
     0
1070
     0
1070
     1
1070
     1
1040
0.0001
1040
0.0001
1002
}
  0
INSERT
  5
A682F
  8
ASHADE
 62
     4
  2
AVE_RENDER
 10
543.4004908101798
 20
209.83609286750331
 30
0.0
1001
AVE_RENDER
1002
{
1070
     0
1000
Quick Opt
1070
     0
1070
     1
1070
     1
1070
     1
1070
     1
1070
     0
1070
     1
1002
}
  0
INSERT
  5
A6830
  8
05
  2
NT_1
 10
642.1098322695243
 20
357.67674426001901
 30
0.0
 41
32.616999881868431
 42
-6.863009327815802
 43
32.616999881868431
  0
INSERT
  5
A6AAF
  8
05
  2
ACAD
 10
543.4004908101798
 20
209.83609286750331
 30
0.0
  0
INSERT
  5
A6BA6
  8
ASHADE
 62
     1
  2
AVE_RENDER
 10
442.43780209146769
 20
192.1506614902996
 30
0.0
1001
AVE_RENDER
1002
{
1070
     2
1000
Pref
1070
    40
1070
    20
1070
     1
1070
     0
1000

1070
    10
1070
     0
1070
    30
1040
1.0
1070
     1
1040
0.3
1040
0.7
1040
0.0
1040
10.0
1010
-1.0
1020
-1.0
1030
-1.0
1040
0.3
1070
    49
1002
}
  0
INSERT
  5
A6BA7
  8
ASHADE
 62
     3
  2
AVE_RENDER
 10
442.43780209146769
 20
192.1506614902996
 30
0.0
1001
AVE_RENDER
1002
{
1070
     0
1000
Full Opt
1070
     0
1070
     1
1070
     1
1070
     1
1070
     0
1070
     0
1070
     0
1070
     1
1070
     1
1040
0.0001
1040
0.0001
1002
}
  0
INSERT
  5
A6BA8
  8
ASHADE
 62
     4
  2
AVE_RENDER
 10
442.43780209146769
 20
192.1506614902996
 30
0.0
1001
AVE_RENDER
1002
{
1070
     0
1000
Quick Opt
1070
     0
1070
     1
1070
     1
1070
     1
1070
     1
1070
     0
1070
     1
1002
}
  0
INSERT
  5
A6BAC
  8
05
  2
NT_1
 10
541.14714355081207
 20
339.99131288281541
 30
0.0
 41
32.616999881868431
 42
-6.863009327815802
 43
32.616999881868431
  0
INSERT
  5
AA030
  8
05
  2
ACAD
 10
442.43780209146769
 20
192.1506614902996
 30
0.0
  0
INSERT
  5
B323C
  8
ASHADE
 62
     1
  2
AVE_RENDER
 10
739.4378020914678
 20
192.1506614902996
 30
0.0
1001
AVE_RENDER
1002
{
1070
     2
1000
Pref
1070
    40
1070
    20
1070
     1
1070
     0
1000

1070
    10
1070
     0
1070
    30
1040
1.0
1070
     1
1040
0.3
1040
0.7
1040
0.0
1040
10.0
1010
-1.0
1020
-1.0
1030
-1.0
1040
0.3
1070
    49
1002
}
  0
INSERT
  5
B323D
  8
ASHADE
 62
     3
  2
AVE_RENDER
 10
739.4378020914678
 20
192.1506614902996
 30
0.0
1001
AVE_RENDER
1002
{
1070
     0
1000
Full Opt
1070
     0
1070
     1
1070
     1
1070
     1
1070
     0
1070
     0
1070
     0
1070
     1
1070
     1
1040
0.0001
1040
0.0001
1002
}
  0
INSERT
  5
B323E
  8
ASHADE
 62
     4
  2
AVE_RENDER
 10
739.4378020914678
 20
192.1506614902996
 30
0.0
1001
AVE_RENDER
1002
{
1070
     0
1000
Quick Opt
1070
     0
1070
     1
1070
     1
1070
     1
1070
     1
1070
     0
1070
     1
1002
}
  0
INSERT
  5
B323F
  8
05
  2
NT_1
 10
838.14714355081207
 20
339.99131288281541
 30
0.0
 41
32.616999881868431
 42
-6.863009327815802
 43
32.616999881868431
  0
INSERT
  5
B3525
  8
05
  2
ACAD
 10
739.4378020914678
 20
192.1506614902996
 30
0.0
  0
INSERT
  5
B35C3
  8
ASHADE
 62
     1
  2
AVE_RENDER
 10
739.4378020914678
 20
192.1506614902996
 30
0.0
1001
AVE_RENDER
1002
{
1070
     2
1000
Pref
1070
    40
1070
    20
1070
     1
1070
     0
1000

1070
    10
1070
     0
1070
    30
1040
1.0
1070
     1
1040
0.3
1040
0.7
1040
0.0
1040
10.0
1010
-1.0
1020
-1.0
1030
-1.0
1040
0.3
1070
    49
1002
}
  0
INSERT
  5
B35C4
  8
ASHADE
 62
     3
  2
AVE_RENDER
 10
739.4378020914678
 20
192.1506614902996
 30
0.0
1001
AVE_RENDER
1002
{
1070
     0
1000
Full Opt
1070
     0
1070
     1
1070
     1
1070
     1
1070
     0
1070
     0
1070
     0
1070
     1
1070
     1
1040
0.0001
1040
0.0001
1002
}
  0
INSERT
  5
B35C5
  8
ASHADE
 62
     4
  2
AVE_RENDER
 10
739.4378020914678
 20
192.1506614902996
 30
0.0
1001
AVE_RENDER
1002
{
1070
     0
1000
Quick Opt
1070
     0
1070
     1
1070
     1
1070
     1
1070
     1
1070
     0
1070
     1
1002
}
  0
INSERT
  5
B35C6
  8
05
  2
NT_1
 10
838.14714355081207
 20
339.99131288281541
 30
0.0
 41
32.616999881868431
 42
-6.863009327815802
 43
32.616999881868431
  0
INSERT
  5
B38AC
  8
05
  2
ACAD
 10
739.4378020914678
 20
192.1506614902996
 30
0.0
  0
INSERT
  5
B39E5
  8
ASHADE
 62
     1
  2
AVE_RENDER
 10
758.54147671435942
 20
190.16198794507221
 30
0.0
1001
AVE_RENDER
1002
{
1070
     2
1000
Pref
1070
    40
1070
    20
1070
     1
1070
     0
1000

1070
    10
1070
     0
1070
    30
1040
1.0
1070
     1
1040
0.3
1040
0.7
1040
0.0
1040
10.0
1010
-1.0
1020
-1.0
1030
-1.0
1040
0.3
1070
    49
1002
}
  0
INSERT
  5
B39E6
  8
ASHADE
 62
     3
  2
AVE_RENDER
 10
758.54147671435942
 20
190.16198794507221
 30
0.0
1001
AVE_RENDER
1002
{
1070
     0
1000
Full Opt
1070
     0
1070
     1
1070
     1
1070
     1
1070
     0
1070
     0
1070
     0
1070
     1
1070
     1
1040
0.0001
1040
0.0001
1002
}
  0
INSERT
  5
B39E7
  8
ASHADE
 62
     4
  2
AVE_RENDER
 10
758.54147671435942
 20
190.16198794507221
 30
0.0
1001
AVE_RENDER
1002
{
1070
     0
1000
Quick Opt
1070
     0
1070
     1
1070
     1
1070
     1
1070
     1
1070
     0
1070
     1
1002
}
  0
INSERT
  5
B39EB
  8
05
  2
NT_1
 10
857.25081817370381
 20
338.00263933758799
 30
0.0
 41
32.616999881868431
 42
-6.863009327815802
 43
32.616999881868431
  0
INSERT
  5
B6E6F
  8
05
  2
ACAD
 10
758.54147671435942
 20
190.16198794507221
 30
0.0
  0
POLYLINE
  5
C893D
  8
RAHMEN
 66
     1
 10
0.0
 20
0.0
 30
0.0
 70
     1
  0
VERTEX
  5
CD266
  8
RAHMEN
 10
205.0
 20
5.0
 30
0.0
  0
VERTEX
  5
CD267
  8
RAHMEN
 10
205.0
 20
292.0
 30
0.0
  0
VERTEX
  5
CD268
  8
RAHMEN
 10
5.0
 20
292.0
 30
0.0
  0
VERTEX
  5
CD269
  8
RAHMEN
 10
5.0
 20
5.0
 30
0.0
  0
SEQEND
  5
CD26A
  8
RAHMEN
  0
POLYLINE
  5
C893E
  8
RAHMEN
 62
     7
 66
     1
 10
0.0
 20
0.0
 30
0.0
  0
VERTEX
  5
CD26B
  8
RAHMEN
 62
     7
 10
210.0
 20
0.0
 30
0.0
  0
VERTEX
  5
CD26C
  8
RAHMEN
 62
     7
 10
210.0
 20
297.0
 30
0.0
  0
VERTEX
  5
CD26D
  8
RAHMEN
 62
     7
 10
0.0
 20
297.0
 30
0.0
  0
VERTEX
  5
CD26E
  8
RAHMEN
 62
     7
 10
0.0
 20
0.0
 30
0.0
  0
VERTEX
  5
CD26F
  8
RAHMEN
 62
     7
 10
210.0
 20
0.0
 30
0.0
  0
SEQEND
  5
CD270
  8
RAHMEN
 62
     7
  0
LINE
  5
C9370
  8
MITTE
 10
77.320663780840505
 20
162.79196185060761
 30
0.0
 11
129.6894137808406
 21
162.79196185060761
 31
0.0
  0
LINE
  5
C9372
  8
05
 10
86.130511110840175
 20
182.79196185060769
 30
0.0
 11
82.948295118840164
 21
182.79196185060769
 31
0.0
  0
LINE
  5
C9373
  8
05
 10
86.130511110840175
 20
164.07304425060761
 30
0.0
 11
82.948295118840164
 21
164.07304425060761
 31
0.0
  0
LINE
  5
C9374
  8
MITTE
 10
100.67232397074351
 20
173.43250305060769
 30
0.0
 11
68.025513584060946
 21
173.43250305060769
 31
0.0
  0
LINE
  5
C9375
  8
05
 10
84.024632880840045
 20
182.79196185060761
 30
0.0
 11
84.024632880840045
 21
164.07304425060761
 31
0.0
  0
LINE
  5
C9376
  8
05
 10
79.11091701084024
 20
182.79196185060769
 30
0.0
 11
79.11091701084024
 21
164.07304425060761
 31
0.0
  0
POLYLINE
  5
C9377
  8
05
 66
     1
 10
0.0
 20
0.0
 30
0.0
 70
     1
  0
VERTEX
  5
CD271
  8
05
 10
84.024632880840258
 20
181.38804303060761
 30
0.0
  0
VERTEX
  5
CD272
  8
05
 10
84.024632880840258
 20
165.47696307060761
 30
0.0
  0
VERTEX
  5
CD273
  8
05
 10
79.11091701084024
 20
165.47696307060761
 30
0.0
  0
VERTEX
  5
CD274
  8
05
 10
79.11091701084024
 20
181.3880430306078
 30
0.0
  0
SEQEND
  5
CD275
  8
05
  0
POLYLINE
  5
C9378
  8
025
 66
     1
 10
0.0
 20
0.0
 30
0.0
  0
VERTEX
  5
CD276
  8
025
 10
80.509622721752066
 20
170.78585968782451
 30
0.0
 42
0.1957062860191981
  0
VERTEX
  5
CD277
  8
025
 10
81.053300057126762
 20
171.8905519146235
 30
0.0
  0
VERTEX
  5
CD278
  8
025
 10
81.053300057126762
 20
176.22551553097489
 30
0.0
 42
0.1720024612105806
  0
VERTEX
  5
CD279
  8
025
 10
80.506723085643443
 20
177.72496641049301
 30
0.0
 42
0.1720024612105806
  0
SEQEND
  5
CD27A
  8
025
  0
POLYLINE
  5
C9379
  8
025
 66
     1
 10
0.0
 20
0.0
 30
0.0
  0
VERTEX
  5
CD27B
  8
025
 10
82.632434144888535
 20
177.63125026413431
 30
0.0
 42
0.184217657103692
  0
VERTEX
  5
CD27C
  8
025
 10
82.082249834553522
 20
176.47542432182041
 30
0.0
  0
VERTEX
  5
CD27D
  8
025
 10
82.082249834553522
 20
171.8905519146235
 30
0.0
 42
0.1918553960062915
  0
VERTEX
  5
CD27E
  8
025
 10
82.607931490572113
 20
170.80210560271129
 30
0.0
  0
SEQEND
  5
CD27F
  8
025
  0
LINE
  5
C937A
  8
05
 10
77.005038780840323
 20
164.07304425060761
 30
0.0
 11
77.005038780840323
 21
182.79196185060761
 31
0.0
  0
POLYLINE
  5
C937D
  8
05
 66
     1
 10
0.0
 20
0.0
 30
0.0
  0
VERTEX
  5
CD280
  8
05
 10
77.005038780840323
 20
168.5187871806076
 30
0.0
  0
VERTEX
  5
CD281
  8
05
 10
69.985444680840146
 20
168.5187871806076
 30
0.0
  0
VERTEX
  5
CD282
  8
05
 10
69.049498800840183
 20
169.45473306060759
 30
0.0
  0
VERTEX
  5
CD283
  8
05
 10
69.049498800840183
 20
177.41027304060759
 30
0.0
  0
VERTEX
  5
CD284
  8
05
 10
69.985444680840146
 20
178.34621892060761
 30
0.0
  0
VERTEX
  5
CD285
  8
05
 10
77.005038780840323
 20
178.34621892060761
 30
0.0
  0
SEQEND
  5
CD286
  8
05
  0
LINE
  5
C937F
  8
05
 10
69.985444680840374
 20
168.5187871806076
 30
0.0
 11
69.985444680840374
 21
178.34621892060761
 31
0.0
  0
POLYLINE
  5
C9382
  8
035
 66
     1
 10
0.0
 20
0.0
 30
0.0
  0
VERTEX
  5
CD287
  8
035
 10
83.650254528840151
 20
165.47696307060761
 30
0.0
  0
VERTEX
  5
CD288
  8
035
 10
83.650254528840151
 20
164.83210679223879
 30
0.0
  0
VERTEX
  5
CD289
  8
035
 10
84.024632880840258
 20
164.83210679223879
 30
0.0
  0
VERTEX
  5
CD28A
  8
035
 10
84.024632880840258
 20
165.47696307060761
 30
0.0
  0
SEQEND
  5
CD28B
  8
035
  0
LINE
  5
C9383
  8
05
 10
82.948295118840164
 20
165.47696307060761
 30
0.0
 11
82.948295118840164
 21
164.07304425060761
 31
0.0
  0
POLYLINE
  5
C9384
  8
035
 66
     1
 10
0.0
 20
0.0
 30
0.0
  0
VERTEX
  5
CD28C
  8
035
 10
79.11091701084024
 20
165.47696307060761
 30
0.0
  0
VERTEX
  5
CD28D
  8
035
 10
79.11091701084024
 20
164.83210679223879
 30
0.0
  0
VERTEX
  5
CD28E
  8
035
 10
79.485295362840134
 20
164.83210679223879
 30
0.0
  0
VERTEX
  5
CD28F
  8
035
 10
79.485295362840134
 20
165.47696307060761
 30
0.0
  0
SEQEND
  5
CD290
  8
035
  0
LINE
  5
C9385
  8
05
 10
80.187254772840106
 20
165.47696307060761
 30
0.0
 11
80.187254772840106
 21
164.07304425060761
 31
0.0
  0
LINE
  5
C9386
  8
05
 10
80.187254772840106
 20
164.07304425060761
 30
0.0
 11
77.005038780840323
 21
164.07304425060761
 31
0.0
  0
LINE
  5
C938A
  8
025
 10
83.704903779535925
 20
170.23589806745019
 30
0.0
 11
82.902068681853066
 21
170.23589806745019
 31
0.0
  0
LINE
  5
C938B
  8
025
 10
79.871300054114045
 20
166.94832056009869
 30
0.0
 11
79.463156587173899
 21
166.94832056009869
 31
0.0
  0
LINE
  5
C938C
  8
025
 10
82.556564688098874
 20
170.23589806745019
 30
0.0
 11
79.56580185796247
 21
170.23589806745019
 31
0.0
  0
LINE
  5
C938D
  8
025
 10
83.554836814793362
 20
166.94832056009869
 30
0.0
 11
80.099556459081668
 21
166.94832056009869
 31
0.0
  0
LINE
  5
C9392
  8
05
 10
82.948295118840164
 20
182.13679973460779
 30
0.0
 11
82.948295118840164
 21
182.79196185060769
 31
0.0
  0
LINE
  5
C9393
  8
05
 10
80.187254772840106
 20
182.13679973460779
 30
0.0
 11
80.187254772840106
 21
182.79196185060769
 31
0.0
  0
LINE
  5
C9394
  8
05
 10
80.187254772840106
 20
182.79196185060769
 30
0.0
 11
77.005038780840323
 21
182.79196185060769
 31
0.0
  0
LINE
  5
C9395
  8
05
 10
80.187254772840106
 20
182.13679973460779
 30
0.0
 11
82.948295118840164
 21
182.13679973460779
 31
0.0
  0
ARC
  5
C9396
  8
035
 10
81.567774945840256
 20
178.03262168078149
 30
0.0
 40
2.5059678859709318
 50
11.3617816359321
 51
168.6382183640678
  0
LINE
  5
C9397
  8
05
 10
98.017023786840355
 20
164.07304425060761
 30
0.0
 11
98.017023786840355
 21
182.79196185060761
 31
0.0
  0
POLYLINE
  5
C9398
  8
05
 66
     1
 10
0.0
 20
0.0
 30
0.0
  0
VERTEX
  5
CD291
  8
05
 10
98.017023786840355
 20
169.12715200260769
 30
0.0
  0
VERTEX
  5
CD292
  8
05
 10
100.0570237868403
 20
169.12715200260769
 30
0.0
  0
SEQEND
  5
CD293
  8
05
  0
LINE
  5
C9399
  8
05
 10
95.911145556840196
 20
182.79196185060761
 30
0.0
 11
95.911145556840196
 21
164.07304425060761
 31
0.0
  0
POLYLINE
  5
C939A
  8
025
 66
     1
 10
0.0
 20
0.0
 30
0.0
  0
VERTEX
  5
CD294
  8
025
 10
88.575690482888831
 20
177.63125026413431
 30
0.0
 42
0.184217657103692
  0
VERTEX
  5
CD295
  8
025
 10
88.025506172553605
 20
176.47542432182041
 30
0.0
  0
VERTEX
  5
CD296
  8
025
 10
88.025506172553605
 20
171.8905519146235
 30
0.0
 42
0.1918553960062915
  0
VERTEX
  5
CD297
  8
025
 10
88.55118782857221
 20
170.80210560271129
 30
0.0
  0
SEQEND
  5
CD298
  8
025
  0
POLYLINE
  5
C939B
  8
025
 66
     1
 10
0.0
 20
0.0
 30
0.0
  0
VERTEX
  5
CD299
  8
025
 10
86.452879059751936
 20
170.78585968782451
 30
0.0
 42
0.1957062860191981
  0
VERTEX
  5
CD29A
  8
025
 10
86.996556395126845
 20
171.8905519146235
 30
0.0
  0
VERTEX
  5
CD29B
  8
025
 10
86.996556395126845
 20
176.22551553097489
 30
0.0
 42
0.1720024612105806
  0
VERTEX
  5
CD29C
  8
025
 10
86.449979423643299
 20
177.72496641049301
 30
0.0
 42
0.1720024612105806
  0
SEQEND
  5
CD29D
  8
025
  0
LINE
  5
C939C
  8
05
 10
90.997429686840405
 20
182.79196185060769
 30
0.0
 11
90.997429686840405
 21
164.07304425060761
 31
0.0
  0
LINE
  5
C939D
  8
05
 10
89.967889218840128
 20
182.79196185060761
 30
0.0
 11
89.967889218840128
 21
164.07304425060761
 31
0.0
  0
POLYLINE
  5
C939E
  8
025
 66
     1
 10
0.0
 20
0.0
 30
0.0
  0
VERTEX
  5
CD29E
  8
025
 10
92.396135397752232
 20
170.78585968782451
 30
0.0
 42
0.1957062860191981
  0
VERTEX
  5
CD29F
  8
025
 10
92.939812733126701
 20
171.8905519146235
 30
0.0
  0
VERTEX
  5
CD2A0
  8
025
 10
92.939812733126701
 20
176.22551553097489
 30
0.0
 42
0.1720024612105806
  0
VERTEX
  5
CD2A1
  8
025
 10
92.393235761643609
 20
177.72496641049301
 30
0.0
 42
0.1720024612105806
  0
SEQEND
  5
CD2A2
  8
025
  0
POLYLINE
  5
C939F
  8
025
 66
     1
 10
0.0
 20
0.0
 30
0.0
  0
VERTEX
  5
CD2A3
  8
025
 10
94.518946820888686
 20
177.63125026413431
 30
0.0
 42
0.184217657103692
  0
VERTEX
  5
CD2A4
  8
025
 10
93.968762510553461
 20
176.47542432182041
 30
0.0
  0
VERTEX
  5
CD2A5
  8
025
 10
93.968762510553461
 20
171.8905519146235
 30
0.0
 42
0.1918553960062915
  0
VERTEX
  5
CD2A6
  8
025
 10
94.494444166572066
 20
170.80210560271129
 30
0.0
  0
SEQEND
  5
CD2A7
  8
025
  0
POLYLINE
  5
C93A0
  8
05
 66
     1
 10
0.0
 20
0.0
 30
0.0
 70
     1
  0
VERTEX
  5
CD2A8
  8
05
 10
95.911145556840196
 20
181.38804303060761
 30
0.0
  0
VERTEX
  5
CD2A9
  8
05
 10
95.911145556840196
 20
165.47696307060761
 30
0.0
  0
VERTEX
  5
CD2AA
  8
05
 10
90.997429686840164
 20
165.47696307060761
 30
0.0
  0
VERTEX
  5
CD2AB
  8
05
 10
90.997429686840164
 20
181.3880430306078
 30
0.0
  0
SEQEND
  5
CD2AC
  8
05
  0
LINE
  5
C93A1
  8
05
 10
85.054173348840095
 20
182.79196185060769
 30
0.0
 11
85.054173348840095
 21
164.07304425060761
 31
0.0
  0
POLYLINE
  5
C93A2
  8
05
 66
     1
 10
0.0
 20
0.0
 30
0.0
 70
     1
  0
VERTEX
  5
CD2AD
  8
05
 10
89.967889218840128
 20
181.38804303060761
 30
0.0
  0
VERTEX
  5
CD2AE
  8
05
 10
89.967889218840128
 20
165.47696307060761
 30
0.0
  0
VERTEX
  5
CD2AF
  8
05
 10
85.054173348840095
 20
165.47696307060761
 30
0.0
  0
VERTEX
  5
CD2B0
  8
05
 10
85.054173348840095
 20
181.3880430306078
 30
0.0
  0
SEQEND
  5
CD2B1
  8
05
  0
POLYLINE
  5
C93A3
  8
035
 66
     1
 10
0.0
 20
0.0
 30
0.0
  0
VERTEX
  5
CD2B2
  8
035
 10
90.997429686840164
 20
165.47696307060761
 30
0.0
  0
VERTEX
  5
CD2B3
  8
035
 10
90.997429686840164
 20
164.83210679223879
 30
0.0
  0
VERTEX
  5
CD2B4
  8
035
 10
91.371808038840072
 20
164.83210679223879
 30
0.0
  0
VERTEX
  5
CD2B5
  8
035
 10
91.371808038840072
 20
165.47696307060761
 30
0.0
  0
SEQEND
  5
CD2B6
  8
035
  0
LINE
  5
C93A4
  8
05
 10
92.073767448840286
 20
165.47696307060761
 30
0.0
 11
92.073767448840286
 21
164.07304425060761
 31
0.0
  0
POLYLINE
  5
C93A5
  8
035
 66
     1
 10
0.0
 20
0.0
 30
0.0
  0
VERTEX
  5
CD2B7
  8
035
 10
89.593510866840234
 20
165.47696307060761
 30
0.0
  0
VERTEX
  5
CD2B8
  8
035
 10
89.593510866840234
 20
164.83210679223879
 30
0.0
  0
VERTEX
  5
CD2B9
  8
035
 10
89.967889218840128
 20
164.83210679223879
 30
0.0
  0
VERTEX
  5
CD2BA
  8
035
 10
89.967889218840128
 20
165.47696307060761
 30
0.0
  0
SEQEND
  5
CD2BB
  8
035
  0
LINE
  5
C93A6
  8
05
 10
88.891551456840276
 20
165.47696307060761
 30
0.0
 11
88.891551456840276
 21
164.07304425060761
 31
0.0
  0
LINE
  5
C93A7
  8
05
 10
86.130511110840175
 20
165.47696307060761
 30
0.0
 11
86.130511110840175
 21
164.07304425060761
 31
0.0
  0
LINE
  5
C93A8
  8
05
 10
92.073767448840286
 20
164.07304425060761
 30
0.0
 11
88.891551456840276
 21
164.07304425060761
 31
0.0
  0
POLYLINE
  5
C93A9
  8
035
 66
     1
 10
0.0
 20
0.0
 30
0.0
  0
VERTEX
  5
CD2BC
  8
035
 10
85.054173348840095
 20
165.47696307060761
 30
0.0
  0
VERTEX
  5
CD2BD
  8
035
 10
85.054173348840095
 20
164.83210679223879
 30
0.0
  0
VERTEX
  5
CD2BE
  8
035
 10
85.428551700839989
 20
164.83210679223879
 30
0.0
  0
VERTEX
  5
CD2BF
  8
035
 10
85.428551700839989
 20
165.47696307060761
 30
0.0
  0
SEQEND
  5
CD2C0
  8
035
  0
POLYLINE
  5
C93AA
  8
035
 66
     1
 10
0.0
 20
0.0
 30
0.0
  0
VERTEX
  5
CD2C1
  8
035
 10
95.536767204840089
 20
165.47696307060761
 30
0.0
  0
VERTEX
  5
CD2C2
  8
035
 10
95.536767204840089
 20
164.83210679223879
 30
0.0
  0
VERTEX
  5
CD2C3
  8
035
 10
95.911145556840196
 20
164.83210679223879
 30
0.0
  0
VERTEX
  5
CD2C4
  8
035
 10
95.911145556840196
 20
165.47696307060761
 30
0.0
  0
SEQEND
  5
CD2C5
  8
035
  0
LINE
  5
C93AB
  8
05
 10
94.834807794840117
 20
165.47696307060761
 30
0.0
 11
94.834807794840117
 21
164.07304425060761
 31
0.0
  0
LINE
  5
C93AC
  8
05
 10
98.017023786840355
 20
164.07304425060761
 30
0.0
 11
94.834807794840117
 21
164.07304425060761
 31
0.0
  0
LINE
  5
C93AD
  8
025
 10
95.434537522857696
 20
166.94832056009869
 30
0.0
 11
92.307721226688273
 21
166.94832056009869
 31
0.0
  0
LINE
  5
C93AE
  8
025
 10
94.223034697412459
 20
170.23589806745019
 30
0.0
 11
91.548146491847319
 21
170.23589806745019
 31
0.0
  0
LINE
  5
C93AF
  8
025
 10
91.757812730113983
 20
166.94832056009869
 30
0.0
 11
91.271364689825305
 21
166.94832056009869
 31
0.0
  0
LINE
  5
C93B0
  8
025
 10
89.498093152793217
 20
166.94832056009869
 30
0.0
 11
86.042812797081979
 21
166.94832056009869
 31
0.0
  0
LINE
  5
C93B1
  8
025
 10
88.499821026099184
 20
170.23589806745019
 30
0.0
 11
85.509058195962794
 21
170.23589806745019
 31
0.0
  0
LINE
  5
C93B2
  8
025
 10
95.591416455536091
 20
170.23589806745019
 30
0.0
 11
94.667591533855102
 21
170.23589806745019
 31
0.0
  0
LINE
  5
C93B3
  8
05
 10
92.073767448840286
 20
182.13679973460779
 30
0.0
 11
94.834807794840117
 21
182.13679973460779
 31
0.0
  0
ARC
  5
C93B4
  8
035
 10
93.454287621840194
 20
178.03262168078149
 30
0.0
 40
2.5059678859709318
 50
11.3617816359321
 51
168.6382183640678
  0
LINE
  5
C93B5
  8
05
 10
92.073767448840286
 20
182.13679973460779
 30
0.0
 11
92.073767448840286
 21
182.79196185060769
 31
0.0
  0
LINE
  5
C93B6
  8
05
 10
88.891551456840276
 20
182.13679973460779
 30
0.0
 11
88.891551456840276
 21
182.79196185060769
 31
0.0
  0
LINE
  5
C93B7
  8
05
 10
86.130511110840175
 20
182.13679973460779
 30
0.0
 11
86.130511110840175
 21
182.79196185060769
 31
0.0
  0
LINE
  5
C93B8
  8
05
 10
86.130511110840175
 20
182.13679973460779
 30
0.0
 11
88.891551456840276
 21
182.13679973460779
 31
0.0
  0
LINE
  5
C93B9
  8
05
 10
92.073767448840286
 20
182.79196185060769
 30
0.0
 11
88.891551456840276
 21
182.79196185060769
 31
0.0
  0
ARC
  5
C93BA
  8
035
 10
87.511031283840339
 20
178.03262168078149
 30
0.0
 40
2.5059678859709318
 50
11.3617816359321
 51
168.6382183640678
  0
LINE
  5
C93BB
  8
05
 10
94.834807794840117
 20
182.13679973460779
 30
0.0
 11
94.834807794840117
 21
182.79196185060769
 31
0.0
  0
LINE
  5
C93BC
  8
05
 10
98.017023786840355
 20
182.79196185060769
 30
0.0
 11
94.834807794840117
 21
182.79196185060769
 31
0.0
  0
LINE
  5
C93BF
  8
05
 10
100.0570237868403
 20
169.1271520026074
 30
0.0
 11
100.0570237868403
 21
177.73785409860761
 31
0.0
  0
ARC
  5
C93C1
  8
05
 10
84.385842223387272
 20
173.43250305060769
 30
0.0
 40
16.25183002745322
 50
344.63810700721291
 51
15.361892992787149
  0
POLYLINE
  5
C93C2
  8
05
 66
     1
 10
0.0
 20
0.0
 30
0.0
  0
VERTEX
  5
CD2C6
  8
05
 10
100.0570237868403
 20
177.7378540986077
 30
0.0
  0
VERTEX
  5
CD2C7
  8
05
 10
98.017023786840355
 20
177.7378540986077
 30
0.0
  0
SEQEND
  5
CD2C8
  8
05
  0
LINE
  5
C93C7
  8
MITTE
 10
100.67232397074351
 20
152.15142065060761
 30
0.0
 11
68.025513584060946
 21
152.15142065060761
 31
0.0
  0
POLYLINE
  5
C93C8
  8
05
 66
     1
 10
0.0
 20
0.0
 30
0.0
  0
VERTEX
  5
CD2C9
  8
05
 10
77.005038780840323
 20
147.2377047806076
 30
0.0
  0
VERTEX
  5
CD2CA
  8
05
 10
69.985444680840146
 20
147.2377047806076
 30
0.0
  0
VERTEX
  5
CD2CB
  8
05
 10
69.049498800840183
 20
148.17365066060759
 30
0.0
  0
VERTEX
  5
CD2CC
  8
05
 10
69.049498800840183
 20
156.1291906406077
 30
0.0
  0
VERTEX
  5
CD2CD
  8
05
 10
69.985444680840146
 20
157.06513652060761
 30
0.0
  0
VERTEX
  5
CD2CE
  8
05
 10
77.005038780840323
 20
157.06513652060761
 30
0.0
  0
SEQEND
  5
CD2CF
  8
05
  0
LINE
  5
C93C9
  8
05
 10
69.985444680840374
 20
147.2377047806076
 30
0.0
 11
69.985444680840374
 21
157.06513652060761
 31
0.0
  0
POLYLINE
  5
C93CA
  8
05
 66
     1
 10
0.0
 20
0.0
 30
0.0
 70
     1
  0
VERTEX
  5
CD2D0
  8
05
 10
95.911145556840196
 20
160.1069606306076
 30
0.0
  0
VERTEX
  5
CD2D1
  8
05
 10
95.911145556840196
 20
144.19588067060761
 30
0.0
  0
VERTEX
  5
CD2D2
  8
05
 10
90.997429686840164
 20
144.19588067060761
 30
0.0
  0
VERTEX
  5
CD2D3
  8
05
 10
90.997429686840164
 20
160.1069606306078
 30
0.0
  0
SEQEND
  5
CD2D4
  8
05
  0
POLYLINE
  5
C93CB
  8
025
 66
     1
 10
0.0
 20
0.0
 30
0.0
  0
VERTEX
  5
CD2D5
  8
025
 10
92.396135397752232
 20
149.5047772878244
 30
0.0
 42
0.1957062860191981
  0
VERTEX
  5
CD2D6
  8
025
 10
92.939812733126701
 20
150.6094695146235
 30
0.0
  0
VERTEX
  5
CD2D7
  8
025
 10
92.939812733126701
 20
154.94443313097489
 30
0.0
 42
0.1720024612105806
  0
VERTEX
  5
CD2D8
  8
025
 10
92.393235761643609
 20
156.44388401049301
 30
0.0
 42
0.1720024612105806
  0
SEQEND
  5
CD2D9
  8
025
  0
POLYLINE
  5
C93CC
  8
025
 66
     1
 10
0.0
 20
0.0
 30
0.0
  0
VERTEX
  5
CD2DA
  8
025
 10
82.632434144888535
 20
156.35016786413431
 30
0.0
 42
0.184217657103692
  0
VERTEX
  5
CD2DB
  8
025
 10
82.082249834553522
 20
155.19434192182041
 30
0.0
  0
VERTEX
  5
CD2DC
  8
025
 10
82.082249834553522
 20
150.6094695146235
 30
0.0
 42
0.1918553960062915
  0
VERTEX
  5
CD2DD
  8
025
 10
82.607931490572113
 20
149.52102320271121
 30
0.0
  0
SEQEND
  5
CD2DE
  8
025
  0
POLYLINE
  5
C93CD
  8
05
 66
     1
 10
0.0
 20
0.0
 30
0.0
 70
     1
  0
VERTEX
  5
CD2DF
  8
05
 10
89.967889218840128
 20
160.1069606306076
 30
0.0
  0
VERTEX
  5
CD2E0
  8
05
 10
89.967889218840128
 20
144.19588067060761
 30
0.0
  0
VERTEX
  5
CD2E1
  8
05
 10
85.054173348840095
 20
144.19588067060761
 30
0.0
  0
VERTEX
  5
CD2E2
  8
05
 10
85.054173348840095
 20
160.1069606306078
 30
0.0
  0
SEQEND
  5
CD2E3
  8
05
  0
LINE
  5
C93CE
  8
05
 10
85.054173348840095
 20
161.5108794506078
 30
0.0
 11
85.054173348840095
 21
142.79196185060761
 31
0.0
  0
LINE
  5
C93CF
  8
05
 10
89.967889218840128
 20
161.5108794506076
 30
0.0
 11
89.967889218840128
 21
142.79196185060761
 31
0.0
  0
LINE
  5
C93D0
  8
05
 10
90.997429686840405
 20
161.5108794506078
 30
0.0
 11
90.997429686840405
 21
142.79196185060761
 31
0.0
  0
LINE
  5
C93D1
  8
05
 10
84.024632880840045
 20
161.5108794506076
 30
0.0
 11
84.024632880840045
 21
142.79196185060761
 31
0.0
  0
POLYLINE
  5
C93D2
  8
025
 66
     1
 10
0.0
 20
0.0
 30
0.0
  0
VERTEX
  5
CD2E4
  8
025
 10
86.452879059751936
 20
149.5047772878244
 30
0.0
 42
0.1957062860191981
  0
VERTEX
  5
CD2E5
  8
025
 10
86.996556395126845
 20
150.6094695146235
 30
0.0
  0
VERTEX
  5
CD2E6
  8
025
 10
86.996556395126845
 20
154.94443313097489
 30
0.0
 42
0.1720024612105806
  0
VERTEX
  5
CD2E7
  8
025
 10
86.449979423643299
 20
156.44388401049301
 30
0.0
 42
0.1720024612105806
  0
SEQEND
  5
CD2E8
  8
025
  0
POLYLINE
  5
C93D3
  8
025
 66
     1
 10
0.0
 20
0.0
 30
0.0
  0
VERTEX
  5
CD2E9
  8
025
 10
88.575690482888831
 20
156.35016786413431
 30
0.0
 42
0.184217657103692
  0
VERTEX
  5
CD2EA
  8
025
 10
88.025506172553605
 20
155.19434192182041
 30
0.0
  0
VERTEX
  5
CD2EB
  8
025
 10
88.025506172553605
 20
150.6094695146235
 30
0.0
 42
0.1918553960062915
  0
VERTEX
  5
CD2EC
  8
025
 10
88.55118782857221
 20
149.52102320271121
 30
0.0
  0
SEQEND
  5
CD2ED
  8
025
  0
LINE
  5
C93D4
  8
05
 10
77.005038780840323
 20
142.79196185060761
 30
0.0
 11
77.005038780840323
 21
161.5108794506076
 31
0.0
  0
LINE
  5
C93D5
  8
05
 10
79.11091701084024
 20
161.5108794506078
 30
0.0
 11
79.11091701084024
 21
142.79196185060761
 31
0.0
  0
POLYLINE
  5
C93D6
  8
05
 66
     1
 10
0.0
 20
0.0
 30
0.0
 70
     1
  0
VERTEX
  5
CD2EE
  8
05
 10
84.024632880840258
 20
160.1069606306076
 30
0.0
  0
VERTEX
  5
CD2EF
  8
05
 10
84.024632880840258
 20
144.19588067060761
 30
0.0
  0
VERTEX
  5
CD2F0
  8
05
 10
79.11091701084024
 20
144.19588067060761
 30
0.0
  0
VERTEX
  5
CD2F1
  8
05
 10
79.11091701084024
 20
160.1069606306078
 30
0.0
  0
SEQEND
  5
CD2F2
  8
05
  0
POLYLINE
  5
C93D7
  8
025
 66
     1
 10
0.0
 20
0.0
 30
0.0
  0
VERTEX
  5
CD2F3
  8
025
 10
80.509622721752066
 20
149.5047772878244
 30
0.0
 42
0.1957062860191981
  0
VERTEX
  5
CD2F4
  8
025
 10
81.053300057126762
 20
150.6094695146235
 30
0.0
  0
VERTEX
  5
CD2F5
  8
025
 10
81.053300057126762
 20
154.94443313097489
 30
0.0
 42
0.1720024612105806
  0
VERTEX
  5
CD2F6
  8
025
 10
80.506723085643443
 20
156.44388401049301
 30
0.0
 42
0.1720024612105806
  0
SEQEND
  5
CD2F7
  8
025
  0
ARC
  5
C93D8
  8
05
 10
84.385842223387272
 20
152.15142065060769
 30
0.0
 40
16.25183002745322
 50
344.63810700721291
 51
15.361892992787149
  0
LINE
  5
C93D9
  8
05
 10
100.0570237868403
 20
147.8460696026074
 30
0.0
 11
100.0570237868403
 21
156.45677169860761
 31
0.0
  0
LINE
  5
C93DA
  8
05
 10
95.911145556840196
 20
161.5108794506076
 30
0.0
 11
95.911145556840196
 21
142.79196185060761
 31
0.0
  0
LINE
  5
C93DB
  8
05
 10
98.017023786840355
 20
142.79196185060761
 30
0.0
 11
98.017023786840355
 21
161.5108794506076
 31
0.0
  0
POLYLINE
  5
C93DC
  8
025
 66
     1
 10
0.0
 20
0.0
 30
0.0
  0
VERTEX
  5
CD2F8
  8
025
 10
94.518946820888686
 20
156.35016786413431
 30
0.0
 42
0.184217657103692
  0
VERTEX
  5
CD2F9
  8
025
 10
93.968762510553461
 20
155.19434192182041
 30
0.0
  0
VERTEX
  5
CD2FA
  8
025
 10
93.968762510553461
 20
150.6094695146235
 30
0.0
 42
0.1918553960062915
  0
VERTEX
  5
CD2FB
  8
025
 10
94.494444166572066
 20
149.52102320271121
 30
0.0
  0
SEQEND
  5
CD2FC
  8
025
  0
LINE
  5
C93DD
  8
025
 10
94.223034697412459
 20
148.95481566745011
 30
0.0
 11
91.548146491847319
 21
148.95481566745011
 31
0.0
  0
LINE
  5
C93DE
  8
025
 10
95.434537522857696
 20
145.66723816009869
 30
0.0
 11
92.307721226688273
 21
145.66723816009869
 31
0.0
  0
LINE
  5
C93DF
  8
025
 10
83.704903779535925
 20
148.95481566745011
 30
0.0
 11
82.902068681853066
 21
148.95481566745011
 31
0.0
  0
LINE
  5
C93E0
  8
05
 10
86.130511110840175
 20
142.79196185060761
 30
0.0
 11
82.948295118840164
 21
142.79196185060761
 31
0.0
  0
LINE
  5
C93E1
  8
05
 10
82.948295118840164
 20
144.19588067060761
 30
0.0
 11
82.948295118840164
 21
142.79196185060761
 31
0.0
  0
LINE
  5
C93E2
  8
05
 10
92.073767448840286
 20
142.79196185060761
 30
0.0
 11
88.891551456840276
 21
142.79196185060761
 31
0.0
  0
LINE
  5
C93E3
  8
025
 10
89.498093152793217
 20
145.66723816009869
 30
0.0
 11
86.042812797081979
 21
145.66723816009869
 31
0.0
  0
LINE
  5
C93E4
  8
025
 10
91.757812730113983
 20
145.66723816009869
 30
0.0
 11
91.271364689825305
 21
145.66723816009869
 31
0.0
  0
POLYLINE
  5
C93E5
  8
035
 66
     1
 10
0.0
 20
0.0
 30
0.0
  0
VERTEX
  5
CD2FD
  8
035
 10
85.054173348840095
 20
144.19588067060761
 30
0.0
  0
VERTEX
  5
CD2FE
  8
035
 10
85.054173348840095
 20
143.55102439223879
 30
0.0
  0
VERTEX
  5
CD2FF
  8
035
 10
85.428551700839989
 20
143.55102439223879
 30
0.0
  0
VERTEX
  5
CD300
  8
035
 10
85.428551700839989
 20
144.19588067060761
 30
0.0
  0
SEQEND
  5
CD301
  8
035
  0
LINE
  5
C93E6
  8
05
 10
86.130511110840175
 20
144.19588067060761
 30
0.0
 11
86.130511110840175
 21
142.79196185060761
 31
0.0
  0
LINE
  5
C93E7
  8
05
 10
88.891551456840276
 20
144.19588067060761
 30
0.0
 11
88.891551456840276
 21
142.79196185060761
 31
0.0
  0
POLYLINE
  5
C93E8
  8
035
 66
     1
 10
0.0
 20
0.0
 30
0.0
  0
VERTEX
  5
CD302
  8
035
 10
89.593510866840234
 20
144.19588067060761
 30
0.0
  0
VERTEX
  5
CD303
  8
035
 10
89.593510866840234
 20
143.55102439223879
 30
0.0
  0
VERTEX
  5
CD304
  8
035
 10
89.967889218840128
 20
143.55102439223879
 30
0.0
  0
VERTEX
  5
CD305
  8
035
 10
89.967889218840128
 20
144.19588067060761
 30
0.0
  0
SEQEND
  5
CD306
  8
035
  0
POLYLINE
  5
C93E9
  8
035
 66
     1
 10
0.0
 20
0.0
 30
0.0
  0
VERTEX
  5
CD307
  8
035
 10
90.997429686840164
 20
144.19588067060761
 30
0.0
  0
VERTEX
  5
CD308
  8
035
 10
90.997429686840164
 20
143.55102439223879
 30
0.0
  0
VERTEX
  5
CD309
  8
035
 10
91.371808038840072
 20
143.55102439223879
 30
0.0
  0
VERTEX
  5
CD30A
  8
035
 10
91.371808038840072
 20
144.19588067060761
 30
0.0
  0
SEQEND
  5
CD30B
  8
035
  0
POLYLINE
  5
C93EA
  8
035
 66
     1
 10
0.0
 20
0.0
 30
0.0
  0
VERTEX
  5
CD30C
  8
035
 10
83.650254528840151
 20
144.19588067060761
 30
0.0
  0
VERTEX
  5
CD30D
  8
035
 10
83.650254528840151
 20
143.55102439223879
 30
0.0
  0
VERTEX
  5
CD30E
  8
035
 10
84.024632880840258
 20
143.55102439223879
 30
0.0
  0
VERTEX
  5
CD30F
  8
035
 10
84.024632880840258
 20
144.19588067060761
 30
0.0
  0
SEQEND
  5
CD310
  8
035
  0
LINE
  5
C93EB
  8
05
 10
92.073767448840286
 20
144.19588067060761
 30
0.0
 11
92.073767448840286
 21
142.79196185060761
 31
0.0
  0
LINE
  5
C93EC
  8
025
 10
88.499821026099184
 20
148.95481566745011
 30
0.0
 11
85.509058195962794
 21
148.95481566745011
 31
0.0
  0
LINE
  5
C93ED
  8
025
 10
79.871300054114045
 20
145.66723816009869
 30
0.0
 11
79.463156587173899
 21
145.66723816009869
 31
0.0
  0
LINE
  5
C93EE
  8
05
 10
80.187254772840106
 20
142.79196185060761
 30
0.0
 11
77.005038780840323
 21
142.79196185060761
 31
0.0
  0
LINE
  5
C93EF
  8
05
 10
80.187254772840106
 20
144.19588067060761
 30
0.0
 11
80.187254772840106
 21
142.79196185060761
 31
0.0
  0
POLYLINE
  5
C93F0
  8
035
 66
     1
 10
0.0
 20
0.0
 30
0.0
  0
VERTEX
  5
CD311
  8
035
 10
79.11091701084024
 20
144.19588067060761
 30
0.0
  0
VERTEX
  5
CD312
  8
035
 10
79.11091701084024
 20
143.55102439223879
 30
0.0
  0
VERTEX
  5
CD313
  8
035
 10
79.485295362840134
 20
143.55102439223879
 30
0.0
  0
VERTEX
  5
CD314
  8
035
 10
79.485295362840134
 20
144.19588067060761
 30
0.0
  0
SEQEND
  5
CD315
  8
035
  0
LINE
  5
C93F1
  8
025
 10
83.554836814793362
 20
145.66723816009869
 30
0.0
 11
80.099556459081668
 21
145.66723816009869
 31
0.0
  0
LINE
  5
C93F2
  8
025
 10
82.556564688098874
 20
148.95481566745011
 30
0.0
 11
79.56580185796247
 21
148.95481566745011
 31
0.0
  0
LINE
  5
C93F3
  8
05
 10
98.017023786840355
 20
142.79196185060761
 30
0.0
 11
94.834807794840117
 21
142.79196185060761
 31
0.0
  0
LINE
  5
C93F4
  8
05
 10
94.834807794840117
 20
144.19588067060761
 30
0.0
 11
94.834807794840117
 21
142.79196185060761
 31
0.0
  0
POLYLINE
  5
C93F5
  8
035
 66
     1
 10
0.0
 20
0.0
 30
0.0
  0
VERTEX
  5
CD316
  8
035
 10
95.536767204840089
 20
144.19588067060761
 30
0.0
  0
VERTEX
  5
CD317
  8
035
 10
95.536767204840089
 20
143.55102439223879
 30
0.0
  0
VERTEX
  5
CD318
  8
035
 10
95.911145556840196
 20
143.55102439223879
 30
0.0
  0
VERTEX
  5
CD319
  8
035
 10
95.911145556840196
 20
144.19588067060761
 30
0.0
  0
SEQEND
  5
CD31A
  8
035
  0
LINE
  5
C93F6
  8
025
 10
95.591416455536091
 20
148.95481566745011
 30
0.0
 11
94.667591533855102
 21
148.95481566745011
 31
0.0
  0
POLYLINE
  5
C93F7
  8
05
 66
     1
 10
0.0
 20
0.0
 30
0.0
  0
VERTEX
  5
CD31B
  8
05
 10
98.017023786840355
 20
147.84606960260771
 30
0.0
  0
VERTEX
  5
CD31C
  8
05
 10
100.0570237868403
 20
147.84606960260771
 30
0.0
  0
SEQEND
  5
CD31D
  8
05
  0
ARC
  5
C93F8
  8
035
 10
93.454287621840194
 20
156.75153928078149
 30
0.0
 40
2.5059678859709318
 50
11.3617816359321
 51
168.6382183640678
  0
LINE
  5
C93F9
  8
05
 10
92.073767448840286
 20
160.85571733460779
 30
0.0
 11
94.834807794840117
 21
160.85571733460779
 31
0.0
  0
LINE
  5
C93FA
  8
05
 10
86.130511110840175
 20
161.5108794506078
 30
0.0
 11
82.948295118840164
 21
161.5108794506078
 31
0.0
  0
LINE
  5
C93FB
  8
05
 10
82.948295118840164
 20
160.85571733460779
 30
0.0
 11
82.948295118840164
 21
161.5108794506078
 31
0.0
  0
ARC
  5
C93FC
  8
035
 10
87.511031283840339
 20
156.75153928078149
 30
0.0
 40
2.5059678859709318
 50
11.3617816359321
 51
168.6382183640678
  0
LINE
  5
C93FD
  8
05
 10
92.073767448840286
 20
161.5108794506078
 30
0.0
 11
88.891551456840276
 21
161.5108794506078
 31
0.0
  0
LINE
  5
C93FE
  8
05
 10
86.130511110840175
 20
160.85571733460779
 30
0.0
 11
88.891551456840276
 21
160.85571733460779
 31
0.0
  0
LINE
  5
C93FF
  8
05
 10
86.130511110840175
 20
160.85571733460779
 30
0.0
 11
86.130511110840175
 21
161.5108794506078
 31
0.0
  0
LINE
  5
C9400
  8
05
 10
88.891551456840276
 20
160.85571733460779
 30
0.0
 11
88.891551456840276
 21
161.5108794506078
 31
0.0
  0
LINE
  5
C9401
  8
05
 10
92.073767448840286
 20
160.85571733460779
 30
0.0
 11
92.073767448840286
 21
161.5108794506078
 31
0.0
  0
LINE
  5
C9402
  8
05
 10
80.187254772840106
 20
161.5108794506078
 30
0.0
 11
77.005038780840323
 21
161.5108794506078
 31
0.0
  0
LINE
  5
C9403
  8
05
 10
80.187254772840106
 20
160.85571733460779
 30
0.0
 11
80.187254772840106
 21
161.5108794506078
 31
0.0
  0
ARC
  5
C9404
  8
035
 10
81.567774945840256
 20
156.75153928078149
 30
0.0
 40
2.5059678859709318
 50
11.3617816359321
 51
168.6382183640678
  0
LINE
  5
C9405
  8
05
 10
80.187254772840106
 20
160.85571733460779
 30
0.0
 11
82.948295118840164
 21
160.85571733460779
 31
0.0
  0
LINE
  5
C9406
  8
05
 10
98.017023786840355
 20
161.5108794506078
 30
0.0
 11
94.834807794840117
 21
161.5108794506078
 31
0.0
  0
LINE
  5
C9407
  8
05
 10
94.834807794840117
 20
160.85571733460779
 30
0.0
 11
94.834807794840117
 21
161.5108794506078
 31
0.0
  0
POLYLINE
  5
C9408
  8
05
 66
     1
 10
0.0
 20
0.0
 30
0.0
  0
VERTEX
  5
CD31E
  8
05
 10
100.0570237868403
 20
156.45677169860761
 30
0.0
  0
VERTEX
  5
CD31F
  8
05
 10
98.017023786840355
 20
156.45677169860761
 30
0.0
  0
SEQEND
  5
CD320
  8
05
  0
POLYLINE
  5
C9409
  8
05
 66
     1
 10
0.0
 20
0.0
 30
0.0
  0
VERTEX
  5
CD321
  8
05
 10
130.00503878084069
 20
157.06513652060761
 30
0.0
  0
VERTEX
  5
CD322
  8
05
 10
137.0246328808409
 20
157.06513652060761
 30
0.0
  0
VERTEX
  5
CD323
  8
05
 10
137.96057876084089
 20
156.12919064060759
 30
0.0
  0
VERTEX
  5
CD324
  8
05
 10
137.96057876084089
 20
148.17365066060759
 30
0.0
  0
VERTEX
  5
CD325
  8
05
 10
137.0246328808409
 20
147.2377047806076
 30
0.0
  0
VERTEX
  5
CD326
  8
05
 10
130.00503878084069
 20
147.2377047806076
 30
0.0
  0
SEQEND
  5
CD327
  8
05
  0
LINE
  5
C940A
  8
MITTE
 10
106.2430354057728
 20
152.15142065060761
 30
0.0
 11
138.9845639776201
 21
152.15142065060761
 31
0.0
  0
LINE
  5
C940B
  8
MITTE
 10
106.2430354057728
 20
173.43250305060769
 30
0.0
 11
138.9845639776201
 21
173.43250305060769
 31
0.0
  0
POLYLINE
  5
C940C
  8
05
 66
     1
 10
0.0
 20
0.0
 30
0.0
  0
VERTEX
  5
CD328
  8
05
 10
130.00503878084069
 20
178.34621892060761
 30
0.0
  0
VERTEX
  5
CD329
  8
05
 10
137.0246328808409
 20
178.34621892060761
 30
0.0
  0
VERTEX
  5
CD32A
  8
05
 10
137.96057876084089
 20
177.41027304060759
 30
0.0
  0
VERTEX
  5
CD32B
  8
05
 10
137.96057876084089
 20
169.45473306060759
 30
0.0
  0
VERTEX
  5
CD32C
  8
05
 10
137.0246328808409
 20
168.5187871806076
 30
0.0
  0
VERTEX
  5
CD32D
  8
05
 10
130.00503878084069
 20
168.5187871806076
 30
0.0
  0
SEQEND
  5
CD32E
  8
05
  0
LINE
  5
C940D
  8
05
 10
137.0246328808407
 20
157.06513652060761
 30
0.0
 11
137.0246328808407
 21
147.2377047806076
 31
0.0
  0
LINE
  5
C940E
  8
05
 10
137.0246328808407
 20
178.34621892060761
 30
0.0
 11
137.0246328808407
 21
168.5187871806076
 31
0.0
  0
LINE
  5
C940F
  8
05
 10
108.9930537748407
 20
161.5108794506076
 30
0.0
 11
108.9930537748407
 21
142.79196185060761
 31
0.0
  0
LINE
  5
C9410
  8
05
 10
111.0989320048409
 20
142.79196185060761
 30
0.0
 11
111.0989320048409
 21
161.5108794506076
 31
0.0
  0
POLYLINE
  5
C9411
  8
05
 66
     1
 10
0.0
 20
0.0
 30
0.0
 70
     1
  0
VERTEX
  5
CD32F
  8
05
 10
122.9854446808408
 20
144.19588067060761
 30
0.0
  0
VERTEX
  5
CD330
  8
05
 10
122.9854446808408
 20
160.1069606306076
 30
0.0
  0
VERTEX
  5
CD331
  8
05
 10
127.8991605508408
 20
160.1069606306076
 30
0.0
  0
VERTEX
  5
CD332
  8
05
 10
127.8991605508408
 20
144.19588067060749
 30
0.0
  0
SEQEND
  5
CD333
  8
05
  0
LINE
  5
C9412
  8
05
 10
127.8991605508408
 20
142.79196185060749
 30
0.0
 11
127.8991605508408
 21
161.5108794506076
 31
0.0
  0
LINE
  5
C9413
  8
05
 10
130.00503878084069
 20
161.5108794506076
 30
0.0
 11
130.00503878084069
 21
142.79196185060761
 31
0.0
  0
LINE
  5
C9414
  8
05
 10
122.985444680841
 20
142.79196185060761
 30
0.0
 11
122.985444680841
 21
161.5108794506076
 31
0.0
  0
LINE
  5
C9415
  8
05
 10
116.0126478748407
 20
142.79196185060749
 30
0.0
 11
116.0126478748407
 21
161.5108794506076
 31
0.0
  0
LINE
  5
C9416
  8
05
 10
117.0421883428409
 20
142.79196185060761
 30
0.0
 11
117.0421883428409
 21
161.5108794506076
 31
0.0
  0
LINE
  5
C9417
  8
05
 10
121.95590421284101
 20
142.79196185060749
 30
0.0
 11
121.95590421284101
 21
161.5108794506076
 31
0.0
  0
POLYLINE
  5
C9418
  8
05
 66
     1
 10
0.0
 20
0.0
 30
0.0
 70
     1
  0
VERTEX
  5
CD334
  8
05
 10
117.0421883428409
 20
144.19588067060761
 30
0.0
  0
VERTEX
  5
CD335
  8
05
 10
117.0421883428409
 20
160.1069606306076
 30
0.0
  0
VERTEX
  5
CD336
  8
05
 10
121.95590421284101
 20
160.1069606306076
 30
0.0
  0
VERTEX
  5
CD337
  8
05
 10
121.95590421284101
 20
144.19588067060749
 30
0.0
  0
SEQEND
  5
CD338
  8
05
  0
POLYLINE
  5
C9419
  8
05
 66
     1
 10
0.0
 20
0.0
 30
0.0
 70
     1
  0
VERTEX
  5
CD339
  8
05
 10
111.0989320048409
 20
144.19588067060761
 30
0.0
  0
VERTEX
  5
CD33A
  8
05
 10
111.0989320048409
 20
160.1069606306076
 30
0.0
  0
VERTEX
  5
CD33B
  8
05
 10
116.01264787484089
 20
160.1069606306076
 30
0.0
  0
VERTEX
  5
CD33C
  8
05
 10
116.01264787484089
 20
144.19588067060749
 30
0.0
  0
SEQEND
  5
CD33D
  8
05
  0
LINE
  5
C941A
  8
025
 10
111.57554003882341
 20
158.6356031411166
 30
0.0
 11
114.7023563349928
 21
158.6356031411166
 31
0.0
  0
LINE
  5
C941B
  8
025
 10
123.4552407468877
 20
158.6356031411166
 30
0.0
 11
126.9105211025994
 21
158.6356031411166
 31
0.0
  0
POLYLINE
  5
C941C
  8
035
 66
     1
 10
0.0
 20
0.0
 30
0.0
  0
VERTEX
  5
CD33E
  8
035
 10
127.8991605508408
 20
160.1069606306076
 30
0.0
  0
VERTEX
  5
CD33F
  8
035
 10
127.8991605508408
 20
160.75181690897651
 30
0.0
  0
VERTEX
  5
CD340
  8
035
 10
127.524782198841
 20
160.75181690897651
 30
0.0
  0
VERTEX
  5
CD341
  8
035
 10
127.524782198841
 20
160.1069606306076
 30
0.0
  0
SEQEND
  5
CD342
  8
035
  0
LINE
  5
C941D
  8
05
 10
126.82282278884099
 20
160.1069606306076
 30
0.0
 11
126.82282278884099
 21
161.5108794506076
 31
0.0
  0
LINE
  5
C941E
  8
05
 10
126.82282278884099
 20
161.5108794506076
 30
0.0
 11
130.00503878084069
 21
161.5108794506076
 31
0.0
  0
LINE
  5
C941F
  8
025
 10
127.138777507567
 20
158.6356031411166
 30
0.0
 11
127.5469209745072
 21
158.6356031411166
 31
0.0
  0
LINE
  5
C9420
  8
05
 10
114.9363101128408
 20
160.1069606306076
 30
0.0
 11
114.9363101128408
 21
161.5108794506076
 31
0.0
  0
POLYLINE
  5
C9421
  8
035
 66
     1
 10
0.0
 20
0.0
 30
0.0
  0
VERTEX
  5
CD343
  8
035
 10
123.35982303284089
 20
160.1069606306076
 30
0.0
  0
VERTEX
  5
CD344
  8
035
 10
123.35982303284089
 20
160.75181690897651
 30
0.0
  0
VERTEX
  5
CD345
  8
035
 10
122.9854446808408
 20
160.75181690897651
 30
0.0
  0
VERTEX
  5
CD346
  8
035
 10
122.9854446808408
 20
160.1069606306076
 30
0.0
  0
SEQEND
  5
CD347
  8
035
  0
POLYLINE
  5
C9422
  8
035
 66
     1
 10
0.0
 20
0.0
 30
0.0
  0
VERTEX
  5
CD348
  8
035
 10
116.01264787484089
 20
160.1069606306076
 30
0.0
  0
VERTEX
  5
CD349
  8
035
 10
116.01264787484089
 20
160.75181690897651
 30
0.0
  0
VERTEX
  5
CD34A
  8
035
 10
115.638269522841
 20
160.75181690897651
 30
0.0
  0
VERTEX
  5
CD34B
  8
035
 10
115.638269522841
 20
160.1069606306076
 30
0.0
  0
SEQEND
  5
CD34C
  8
035
  0
POLYLINE
  5
C9423
  8
035
 66
     1
 10
0.0
 20
0.0
 30
0.0
  0
VERTEX
  5
CD34D
  8
035
 10
117.4165666948408
 20
160.1069606306076
 30
0.0
  0
VERTEX
  5
CD34E
  8
035
 10
117.4165666948408
 20
160.75181690897651
 30
0.0
  0
VERTEX
  5
CD34F
  8
035
 10
117.0421883428409
 20
160.75181690897651
 30
0.0
  0
VERTEX
  5
CD350
  8
035
 10
117.0421883428409
 20
160.1069606306076
 30
0.0
  0
SEQEND
  5
CD351
  8
035
  0
LINE
  5
C9424
  8
05
 10
118.1185261048408
 20
160.1069606306076
 30
0.0
 11
118.1185261048408
 21
161.5108794506076
 31
0.0
  0
LINE
  5
C9425
  8
05
 10
120.8795664508409
 20
160.1069606306076
 30
0.0
 11
120.8795664508409
 21
161.5108794506076
 31
0.0
  0
POLYLINE
  5
C9426
  8
035
 66
     1
 10
0.0
 20
0.0
 30
0.0
  0
VERTEX
  5
CD352
  8
035
 10
121.95590421284101
 20
160.1069606306076
 30
0.0
  0
VERTEX
  5
CD353
  8
035
 10
121.95590421284101
 20
160.75181690897651
 30
0.0
  0
VERTEX
  5
CD354
  8
035
 10
121.5815258608411
 20
160.75181690897651
 30
0.0
  0
VERTEX
  5
CD355
  8
035
 10
121.5815258608411
 20
160.1069606306076
 30
0.0
  0
SEQEND
  5
CD356
  8
035
  0
LINE
  5
C9427
  8
025
 10
115.2522648315671
 20
158.6356031411166
 30
0.0
 11
115.7387128718558
 21
158.6356031411166
 31
0.0
  0
LINE
  5
C9428
  8
025
 10
117.5119844088879
 20
158.6356031411166
 30
0.0
 11
120.96726476459909
 21
158.6356031411166
 31
0.0
  0
LINE
  5
C9429
  8
05
 10
114.9363101128408
 20
161.5108794506076
 30
0.0
 11
118.1185261048408
 21
161.5108794506076
 31
0.0
  0
LINE
  5
C942A
  8
05
 10
124.06178244284089
 20
160.1069606306076
 30
0.0
 11
124.06178244284089
 21
161.5108794506076
 31
0.0
  0
LINE
  5
C942B
  8
05
 10
120.8795664508409
 20
161.5108794506076
 30
0.0
 11
124.06178244284089
 21
161.5108794506076
 31
0.0
  0
POLYLINE
  5
C942C
  8
035
 66
     1
 10
0.0
 20
0.0
 30
0.0
  0
VERTEX
  5
CD357
  8
035
 10
111.473310356841
 20
160.1069606306076
 30
0.0
  0
VERTEX
  5
CD358
  8
035
 10
111.473310356841
 20
160.75181690897651
 30
0.0
  0
VERTEX
  5
CD359
  8
035
 10
111.0989320048409
 20
160.75181690897651
 30
0.0
  0
VERTEX
  5
CD35A
  8
035
 10
111.0989320048409
 20
160.1069606306076
 30
0.0
  0
SEQEND
  5
CD35B
  8
035
  0
LINE
  5
C942D
  8
05
 10
112.175269766841
 20
160.1069606306076
 30
0.0
 11
112.175269766841
 21
161.5108794506076
 31
0.0
  0
LINE
  5
C942E
  8
05
 10
108.9930537748407
 20
161.5108794506076
 30
0.0
 11
112.175269766841
 21
161.5108794506076
 31
0.0
  0
POLYLINE
  5
C942F
  8
05
 66
     1
 10
0.0
 20
0.0
 30
0.0
 70
     1
  0
VERTEX
  5
CD35C
  8
05
 10
111.0989320048409
 20
165.47696307060761
 30
0.0
  0
VERTEX
  5
CD35D
  8
05
 10
111.0989320048409
 20
181.38804303060761
 30
0.0
  0
VERTEX
  5
CD35E
  8
05
 10
116.01264787484089
 20
181.38804303060761
 30
0.0
  0
VERTEX
  5
CD35F
  8
05
 10
116.01264787484089
 20
165.4769630706075
 30
0.0
  0
SEQEND
  5
CD360
  8
05
  0
POLYLINE
  5
C9430
  8
025
 66
     1
 10
0.0
 20
0.0
 30
0.0
  0
VERTEX
  5
CD361
  8
025
 10
114.6139421639288
 20
176.07914641339079
 30
0.0
 42
0.1957062860191981
  0
VERTEX
  5
CD362
  8
025
 10
114.0702648285544
 20
174.9744541865918
 30
0.0
  0
VERTEX
  5
CD363
  8
025
 10
114.0702648285544
 20
170.63949057024041
 30
0.0
 42
0.1720024612105806
  0
VERTEX
  5
CD364
  8
025
 10
114.61684180003751
 20
169.14003969072229
 30
0.0
 42
0.1720024612105806
  0
SEQEND
  5
CD365
  8
025
  0
POLYLINE
  5
C9431
  8
025
 66
     1
 10
0.0
 20
0.0
 30
0.0
  0
VERTEX
  5
CD366
  8
025
 10
124.37764341679259
 20
169.23375583708099
 30
0.0
 42
0.184217657103692
  0
VERTEX
  5
CD367
  8
025
 10
124.92782772712761
 20
170.38958177939489
 30
0.0
  0
VERTEX
  5
CD368
  8
025
 10
124.92782772712761
 20
174.9744541865918
 30
0.0
 42
0.1918553960062915
  0
VERTEX
  5
CD369
  8
025
 10
124.4021460711089
 20
176.06290049850401
 30
0.0
  0
SEQEND
  5
CD36A
  8
025
  0
POLYLINE
  5
C9432
  8
05
 66
     1
 10
0.0
 20
0.0
 30
0.0
 70
     1
  0
VERTEX
  5
CD36B
  8
05
 10
117.0421883428409
 20
165.47696307060761
 30
0.0
  0
VERTEX
  5
CD36C
  8
05
 10
117.0421883428409
 20
181.38804303060761
 30
0.0
  0
VERTEX
  5
CD36D
  8
05
 10
121.95590421284101
 20
181.38804303060761
 30
0.0
  0
VERTEX
  5
CD36E
  8
05
 10
121.95590421284101
 20
165.4769630706075
 30
0.0
  0
SEQEND
  5
CD36F
  8
05
  0
LINE
  5
C9433
  8
05
 10
121.95590421284101
 20
164.0730442506075
 30
0.0
 11
121.95590421284101
 21
182.79196185060761
 31
0.0
  0
LINE
  5
C9434
  8
05
 10
117.0421883428409
 20
164.07304425060761
 30
0.0
 11
117.0421883428409
 21
182.79196185060761
 31
0.0
  0
LINE
  5
C9435
  8
05
 10
116.0126478748407
 20
164.0730442506075
 30
0.0
 11
116.0126478748407
 21
182.79196185060761
 31
0.0
  0
LINE
  5
C9436
  8
05
 10
122.985444680841
 20
164.07304425060761
 30
0.0
 11
122.985444680841
 21
182.79196185060761
 31
0.0
  0
POLYLINE
  5
C9437
  8
025
 66
     1
 10
0.0
 20
0.0
 30
0.0
  0
VERTEX
  5
CD370
  8
025
 10
120.55719850192919
 20
176.07914641339079
 30
0.0
 42
0.1957062860191981
  0
VERTEX
  5
CD371
  8
025
 10
120.0135211665542
 20
174.9744541865918
 30
0.0
  0
VERTEX
  5
CD372
  8
025
 10
120.0135211665542
 20
170.63949057024041
 30
0.0
 42
0.1720024612105806
  0
VERTEX
  5
CD373
  8
025
 10
120.5600981380378
 20
169.14003969072229
 30
0.0
 42
0.1720024612105806
  0
SEQEND
  5
CD374
  8
025
  0
POLYLINE
  5
C9438
  8
025
 66
     1
 10
0.0
 20
0.0
 30
0.0
  0
VERTEX
  5
CD375
  8
025
 10
118.4343870787923
 20
169.23375583708099
 30
0.0
 42
0.184217657103692
  0
VERTEX
  5
CD376
  8
025
 10
118.9845713891275
 20
170.38958177939489
 30
0.0
  0
VERTEX
  5
CD377
  8
025
 10
118.9845713891275
 20
174.9744541865918
 30
0.0
 42
0.1918553960062915
  0
VERTEX
  5
CD378
  8
025
 10
118.4588897331089
 20
176.06290049850401
 30
0.0
  0
SEQEND
  5
CD379
  8
025
  0
LINE
  5
C9439
  8
05
 10
130.00503878084069
 20
182.79196185060761
 30
0.0
 11
130.00503878084069
 21
164.07304425060761
 31
0.0
  0
LINE
  5
C943A
  8
05
 10
127.8991605508408
 20
164.0730442506075
 30
0.0
 11
127.8991605508408
 21
182.79196185060761
 31
0.0
  0
POLYLINE
  5
C943B
  8
05
 66
     1
 10
0.0
 20
0.0
 30
0.0
 70
     1
  0
VERTEX
  5
CD37A
  8
05
 10
122.9854446808408
 20
165.47696307060761
 30
0.0
  0
VERTEX
  5
CD37B
  8
05
 10
122.9854446808408
 20
181.38804303060761
 30
0.0
  0
VERTEX
  5
CD37C
  8
05
 10
127.8991605508408
 20
181.38804303060761
 30
0.0
  0
VERTEX
  5
CD37D
  8
05
 10
127.8991605508408
 20
165.4769630706075
 30
0.0
  0
SEQEND
  5
CD37E
  8
05
  0
POLYLINE
  5
C943C
  8
025
 66
     1
 10
0.0
 20
0.0
 30
0.0
  0
VERTEX
  5
CD37F
  8
025
 10
126.50045483992901
 20
176.07914641339079
 30
0.0
 42
0.1957062860191981
  0
VERTEX
  5
CD380
  8
025
 10
125.9567775045543
 20
174.9744541865918
 30
0.0
  0
VERTEX
  5
CD381
  8
025
 10
125.9567775045543
 20
170.63949057024041
 30
0.0
 42
0.1720024612105806
  0
VERTEX
  5
CD382
  8
025
 10
126.5033544760376
 20
169.14003969072229
 30
0.0
 42
0.1720024612105806
  0
SEQEND
  5
CD383
  8
025
  0
ARC
  5
C943D
  8
05
 10
122.6242353382938
 20
173.43250305060761
 30
0.0
 40
16.25183002745322
 50
164.63810700721291
 51
195.36189299278709
  0
LINE
  5
C943E
  8
05
 10
106.9530537748408
 20
177.7378540986079
 30
0.0
 11
106.9530537748408
 21
169.12715200260769
 31
0.0
  0
LINE
  5
C943F
  8
05
 10
111.0989320048409
 20
164.07304425060761
 30
0.0
 11
111.0989320048409
 21
182.79196185060761
 31
0.0
  0
LINE
  5
C9440
  8
05
 10
108.9930537748407
 20
182.79196185060761
 30
0.0
 11
108.9930537748407
 21
164.07304425060761
 31
0.0
  0
POLYLINE
  5
C9441
  8
025
 66
     1
 10
0.0
 20
0.0
 30
0.0
  0
VERTEX
  5
CD384
  8
025
 10
112.4911307407924
 20
169.23375583708099
 30
0.0
 42
0.184217657103692
  0
VERTEX
  5
CD385
  8
025
 10
113.0413150511276
 20
170.38958177939489
 30
0.0
  0
VERTEX
  5
CD386
  8
025
 10
113.0413150511276
 20
174.9744541865918
 30
0.0
 42
0.1918553960062915
  0
VERTEX
  5
CD387
  8
025
 10
112.51563339510901
 20
176.06290049850401
 30
0.0
  0
SEQEND
  5
CD388
  8
025
  0
LINE
  5
C9442
  8
05
 10
114.9363101128408
 20
143.44712396660739
 30
0.0
 11
112.175269766841
 21
143.44712396660739
 31
0.0
  0
ARC
  5
C9443
  8
035
 10
113.55578993984091
 20
147.55130202043381
 30
0.0
 40
2.5059678859709318
 50
191.36178163593209
 51
348.63821836406782
  0
LINE
  5
C9444
  8
025
 10
112.7870428642686
 20
155.3480256337651
 30
0.0
 11
115.4619310698338
 21
155.3480256337651
 31
0.0
  0
POLYLINE
  5
C9445
  8
025
 66
     1
 10
0.0
 20
0.0
 30
0.0
  0
VERTEX
  5
CD389
  8
025
 10
112.4911307407924
 20
147.95267343708099
 30
0.0
 42
0.184217657103692
  0
VERTEX
  5
CD38A
  8
025
 10
113.0413150511276
 20
149.10849937939491
 30
0.0
  0
VERTEX
  5
CD38B
  8
025
 10
113.0413150511276
 20
153.6933717865918
 30
0.0
 42
0.1918553960062915
  0
VERTEX
  5
CD38C
  8
025
 10
112.51563339510901
 20
154.781818098504
 30
0.0
  0
SEQEND
  5
CD38D
  8
025
  0
LINE
  5
C9446
  8
025
 10
112.7870428642686
 20
176.62910803376519
 30
0.0
 11
115.4619310698338
 21
176.62910803376519
 31
0.0
  0
LINE
  5
C9447
  8
025
 10
111.57554003882341
 20
179.91668554111661
 30
0.0
 11
114.7023563349928
 21
179.91668554111661
 31
0.0
  0
LINE
  5
C9448
  8
05
 10
126.82282278884099
 20
143.44712396660739
 30
0.0
 11
124.06178244284089
 21
143.44712396660739
 31
0.0
  0
ARC
  5
C9449
  8
035
 10
125.4423026158408
 20
147.55130202043381
 30
0.0
 40
2.5059678859709318
 50
191.36178163593209
 51
348.63821836406782
  0
LINE
  5
C944A
  8
05
 10
126.82282278884099
 20
143.44712396660739
 30
0.0
 11
126.82282278884099
 21
142.79196185060749
 31
0.0
  0
LINE
  5
C944B
  8
05
 10
126.82282278884099
 20
142.79196185060749
 30
0.0
 11
130.00503878084069
 21
142.79196185060749
 31
0.0
  0
LINE
  5
C944C
  8
05
 10
114.9363101128408
 20
143.44712396660739
 30
0.0
 11
114.9363101128408
 21
142.79196185060749
 31
0.0
  0
LINE
  5
C944D
  8
05
 10
118.1185261048408
 20
143.44712396660739
 30
0.0
 11
118.1185261048408
 21
142.79196185060749
 31
0.0
  0
LINE
  5
C944E
  8
05
 10
120.8795664508409
 20
143.44712396660739
 30
0.0
 11
120.8795664508409
 21
142.79196185060749
 31
0.0
  0
LINE
  5
C944F
  8
05
 10
120.8795664508409
 20
143.44712396660739
 30
0.0
 11
118.1185261048408
 21
143.44712396660739
 31
0.0
  0
LINE
  5
C9450
  8
05
 10
114.9363101128408
 20
142.79196185060749
 30
0.0
 11
118.1185261048408
 21
142.79196185060749
 31
0.0
  0
ARC
  5
C9451
  8
035
 10
119.4990462778407
 20
147.55130202043381
 30
0.0
 40
2.5059678859709318
 50
191.36178163593209
 51
348.63821836406782
  0
LINE
  5
C9452
  8
05
 10
124.06178244284089
 20
143.44712396660739
 30
0.0
 11
124.06178244284089
 21
142.79196185060749
 31
0.0
  0
LINE
  5
C9453
  8
05
 10
120.8795664508409
 20
142.79196185060749
 30
0.0
 11
124.06178244284089
 21
142.79196185060749
 31
0.0
  0
LINE
  5
C9454
  8
025
 10
124.4535128735822
 20
155.3480256337651
 30
0.0
 11
127.4442757037186
 21
155.3480256337651
 31
0.0
  0
LINE
  5
C9455
  8
025
 10
118.5102565355819
 20
155.3480256337651
 30
0.0
 11
121.50101936571831
 21
155.3480256337651
 31
0.0
  0
LINE
  5
C9456
  8
025
 10
123.3051737821452
 20
155.3480256337651
 30
0.0
 11
124.10800887982801
 21
155.3480256337651
 31
0.0
  0
POLYLINE
  5
C9457
  8
025
 66
     1
 10
0.0
 20
0.0
 30
0.0
  0
VERTEX
  5
CD38E
  8
025
 10
126.50045483992901
 20
154.79806401339081
 30
0.0
 42
0.1957062860191981
  0
VERTEX
  5
CD38F
  8
025
 10
125.9567775045543
 20
153.6933717865918
 30
0.0
  0
VERTEX
  5
CD390
  8
025
 10
125.9567775045543
 20
149.35840817024041
 30
0.0
 42
0.1720024612105806
  0
VERTEX
  5
CD391
  8
025
 10
126.5033544760376
 20
147.85895729072229
 30
0.0
 42
0.1720024612105806
  0
SEQEND
  5
CD392
  8
025
  0
POLYLINE
  5
C9458
  8
025
 66
     1
 10
0.0
 20
0.0
 30
0.0
  0
VERTEX
  5
CD393
  8
025
 10
118.4343870787923
 20
147.95267343708099
 30
0.0
 42
0.184217657103692
  0
VERTEX
  5
CD394
  8
025
 10
118.9845713891275
 20
149.10849937939491
 30
0.0
  0
VERTEX
  5
CD395
  8
025
 10
118.9845713891275
 20
153.6933717865918
 30
0.0
 42
0.1918553960062915
  0
VERTEX
  5
CD396
  8
025
 10
118.4588897331089
 20
154.781818098504
 30
0.0
  0
SEQEND
  5
CD397
  8
025
  0
POLYLINE
  5
C9459
  8
025
 66
     1
 10
0.0
 20
0.0
 30
0.0
  0
VERTEX
  5
CD398
  8
025
 10
120.55719850192919
 20
154.79806401339081
 30
0.0
 42
0.1957062860191981
  0
VERTEX
  5
CD399
  8
025
 10
120.0135211665542
 20
153.6933717865918
 30
0.0
  0
VERTEX
  5
CD39A
  8
025
 10
120.0135211665542
 20
149.35840817024041
 30
0.0
 42
0.1720024612105806
  0
VERTEX
  5
CD39B
  8
025
 10
120.5600981380378
 20
147.85895729072229
 30
0.0
 42
0.1720024612105806
  0
SEQEND
  5
CD39C
  8
025
  0
POLYLINE
  5
C945A
  8
025
 66
     1
 10
0.0
 20
0.0
 30
0.0
  0
VERTEX
  5
CD39D
  8
025
 10
124.37764341679259
 20
147.95267343708099
 30
0.0
 42
0.184217657103692
  0
VERTEX
  5
CD39E
  8
025
 10
124.92782772712761
 20
149.10849937939491
 30
0.0
  0
VERTEX
  5
CD39F
  8
025
 10
124.92782772712761
 20
153.6933717865918
 30
0.0
 42
0.1918553960062915
  0
VERTEX
  5
CD3A0
  8
025
 10
124.4021460711089
 20
154.781818098504
 30
0.0
  0
SEQEND
  5
CD3A1
  8
025
  0
POLYLINE
  5
C945B
  8
025
 66
     1
 10
0.0
 20
0.0
 30
0.0
  0
VERTEX
  5
CD3A2
  8
025
 10
114.6139421639288
 20
154.79806401339081
 30
0.0
 42
0.1957062860191981
  0
VERTEX
  5
CD3A3
  8
025
 10
114.0702648285544
 20
153.6933717865918
 30
0.0
  0
VERTEX
  5
CD3A4
  8
025
 10
114.0702648285544
 20
149.35840817024041
 30
0.0
 42
0.1720024612105806
  0
VERTEX
  5
CD3A5
  8
025
 10
114.61684180003751
 20
147.85895729072229
 30
0.0
 42
0.1720024612105806
  0
SEQEND
  5
CD3A6
  8
025
  0
LINE
  5
C945C
  8
025
 10
123.3051737821452
 20
176.62910803376519
 30
0.0
 11
124.10800887982801
 21
176.62910803376519
 31
0.0
  0
LINE
  5
C945D
  8
05
 10
120.8795664508409
 20
182.79196185060761
 30
0.0
 11
124.06178244284089
 21
182.79196185060761
 31
0.0
  0
LINE
  5
C945E
  8
05
 10
124.06178244284089
 20
181.38804303060761
 30
0.0
 11
124.06178244284089
 21
182.79196185060761
 31
0.0
  0
LINE
  5
C945F
  8
05
 10
114.9363101128408
 20
182.79196185060761
 30
0.0
 11
118.1185261048408
 21
182.79196185060761
 31
0.0
  0
LINE
  5
C9460
  8
025
 10
117.5119844088879
 20
179.91668554111661
 30
0.0
 11
120.96726476459909
 21
179.91668554111661
 31
0.0
  0
LINE
  5
C9461
  8
025
 10
115.2522648315671
 20
179.91668554111661
 30
0.0
 11
115.7387128718558
 21
179.91668554111661
 31
0.0
  0
POLYLINE
  5
C9462
  8
035
 66
     1
 10
0.0
 20
0.0
 30
0.0
  0
VERTEX
  5
CD3A7
  8
035
 10
121.95590421284101
 20
181.38804303060761
 30
0.0
  0
VERTEX
  5
CD3A8
  8
035
 10
121.95590421284101
 20
182.03289930897651
 30
0.0
  0
VERTEX
  5
CD3A9
  8
035
 10
121.5815258608411
 20
182.03289930897651
 30
0.0
  0
VERTEX
  5
CD3AA
  8
035
 10
121.5815258608411
 20
181.38804303060761
 30
0.0
  0
SEQEND
  5
CD3AB
  8
035
  0
LINE
  5
C9463
  8
05
 10
120.8795664508409
 20
181.38804303060761
 30
0.0
 11
120.8795664508409
 21
182.79196185060761
 31
0.0
  0
LINE
  5
C9464
  8
05
 10
118.1185261048408
 20
181.38804303060761
 30
0.0
 11
118.1185261048408
 21
182.79196185060761
 31
0.0
  0
POLYLINE
  5
C9465
  8
035
 66
     1
 10
0.0
 20
0.0
 30
0.0
  0
VERTEX
  5
CD3AC
  8
035
 10
117.4165666948408
 20
181.38804303060761
 30
0.0
  0
VERTEX
  5
CD3AD
  8
035
 10
117.4165666948408
 20
182.03289930897651
 30
0.0
  0
VERTEX
  5
CD3AE
  8
035
 10
117.0421883428409
 20
182.03289930897651
 30
0.0
  0
VERTEX
  5
CD3AF
  8
035
 10
117.0421883428409
 20
181.38804303060761
 30
0.0
  0
SEQEND
  5
CD3B0
  8
035
  0
POLYLINE
  5
C9466
  8
035
 66
     1
 10
0.0
 20
0.0
 30
0.0
  0
VERTEX
  5
CD3B1
  8
035
 10
116.01264787484089
 20
181.38804303060761
 30
0.0
  0
VERTEX
  5
CD3B2
  8
035
 10
116.01264787484089
 20
182.03289930897651
 30
0.0
  0
VERTEX
  5
CD3B3
  8
035
 10
115.638269522841
 20
182.03289930897651
 30
0.0
  0
VERTEX
  5
CD3B4
  8
035
 10
115.638269522841
 20
181.38804303060761
 30
0.0
  0
SEQEND
  5
CD3B5
  8
035
  0
POLYLINE
  5
C9467
  8
035
 66
     1
 10
0.0
 20
0.0
 30
0.0
  0
VERTEX
  5
CD3B6
  8
035
 10
123.35982303284089
 20
181.38804303060761
 30
0.0
  0
VERTEX
  5
CD3B7
  8
035
 10
123.35982303284089
 20
182.03289930897651
 30
0.0
  0
VERTEX
  5
CD3B8
  8
035
 10
122.9854446808408
 20
182.03289930897651
 30
0.0
  0
VERTEX
  5
CD3B9
  8
035
 10
122.9854446808408
 20
181.38804303060761
 30
0.0
  0
SEQEND
  5
CD3BA
  8
035
  0
LINE
  5
C9468
  8
05
 10
114.9363101128408
 20
181.38804303060761
 30
0.0
 11
114.9363101128408
 21
182.79196185060761
 31
0.0
  0
LINE
  5
C9469
  8
025
 10
118.5102565355819
 20
176.62910803376519
 30
0.0
 11
121.50101936571831
 21
176.62910803376519
 31
0.0
  0
LINE
  5
C946A
  8
025
 10
127.138777507567
 20
179.91668554111661
 30
0.0
 11
127.5469209745072
 21
179.91668554111661
 31
0.0
  0
LINE
  5
C946B
  8
05
 10
126.82282278884099
 20
182.79196185060761
 30
0.0
 11
130.00503878084069
 21
182.79196185060761
 31
0.0
  0
LINE
  5
C946C
  8
05
 10
126.82282278884099
 20
181.38804303060761
 30
0.0
 11
126.82282278884099
 21
182.79196185060761
 31
0.0
  0
POLYLINE
  5
C946D
  8
035
 66
     1
 10
0.0
 20
0.0
 30
0.0
  0
VERTEX
  5
CD3BB
  8
035
 10
127.8991605508408
 20
181.38804303060761
 30
0.0
  0
VERTEX
  5
CD3BC
  8
035
 10
127.8991605508408
 20
182.03289930897651
 30
0.0
  0
VERTEX
  5
CD3BD
  8
035
 10
127.524782198841
 20
182.03289930897651
 30
0.0
  0
VERTEX
  5
CD3BE
  8
035
 10
127.524782198841
 20
181.38804303060761
 30
0.0
  0
SEQEND
  5
CD3BF
  8
035
  0
LINE
  5
C946E
  8
025
 10
123.4552407468877
 20
179.91668554111661
 30
0.0
 11
126.9105211025994
 21
179.91668554111661
 31
0.0
  0
LINE
  5
C946F
  8
025
 10
124.4535128735822
 20
176.62910803376519
 30
0.0
 11
127.4442757037186
 21
176.62910803376519
 31
0.0
  0
POLYLINE
  5
C9470
  8
05
 66
     1
 10
0.0
 20
0.0
 30
0.0
  0
VERTEX
  5
CD3C0
  8
05
 10
106.9530537748408
 20
147.8460696026076
 30
0.0
  0
VERTEX
  5
CD3C1
  8
05
 10
108.9930537748407
 20
147.8460696026076
 30
0.0
  0
SEQEND
  5
CD3C2
  8
05
  0
LINE
  5
C9471
  8
05
 10
112.175269766841
 20
143.44712396660739
 30
0.0
 11
112.175269766841
 21
142.79196185060749
 31
0.0
  0
LINE
  5
C9472
  8
05
 10
108.9930537748407
 20
142.79196185060749
 30
0.0
 11
112.175269766841
 21
142.79196185060749
 31
0.0
  0
POLYLINE
  5
C9473
  8
05
 66
     1
 10
0.0
 20
0.0
 30
0.0
  0
VERTEX
  5
CD3C3
  8
05
 10
108.9930537748407
 20
156.4567716986075
 30
0.0
  0
VERTEX
  5
CD3C4
  8
05
 10
106.9530537748408
 20
156.4567716986075
 30
0.0
  0
SEQEND
  5
CD3C5
  8
05
  0
LINE
  5
C9474
  8
025
 10
111.418661106145
 20
155.3480256337651
 30
0.0
 11
112.342486027826
 21
155.3480256337651
 31
0.0
  0
LINE
  5
C9475
  8
05
 10
106.9530537748408
 20
156.45677169860789
 30
0.0
 11
106.9530537748408
 21
147.84606960260771
 31
0.0
  0
ARC
  5
C9476
  8
05
 10
122.6242353382938
 20
152.15142065060761
 30
0.0
 40
16.25183002745322
 50
164.63810700721291
 51
195.36189299278709
  0
LINE
  5
C9477
  8
05
 10
108.9930537748407
 20
182.79196185060761
 30
0.0
 11
112.175269766841
 21
182.79196185060761
 31
0.0
  0
LINE
  5
C9478
  8
05
 10
112.175269766841
 20
181.38804303060761
 30
0.0
 11
112.175269766841
 21
182.79196185060761
 31
0.0
  0
POLYLINE
  5
C9479
  8
035
 66
     1
 10
0.0
 20
0.0
 30
0.0
  0
VERTEX
  5
CD3C6
  8
035
 10
111.473310356841
 20
181.38804303060761
 30
0.0
  0
VERTEX
  5
CD3C7
  8
035
 10
111.473310356841
 20
182.03289930897651
 30
0.0
  0
VERTEX
  5
CD3C8
  8
035
 10
111.0989320048409
 20
182.03289930897651
 30
0.0
  0
VERTEX
  5
CD3C9
  8
035
 10
111.0989320048409
 20
181.38804303060761
 30
0.0
  0
SEQEND
  5
CD3CA
  8
035
  0
LINE
  5
C947A
  8
025
 10
111.418661106145
 20
176.62910803376519
 30
0.0
 11
112.342486027826
 21
176.62910803376519
 31
0.0
  0
POLYLINE
  5
C947B
  8
05
 66
     1
 10
0.0
 20
0.0
 30
0.0
  0
VERTEX
  5
CD3CB
  8
05
 10
108.9930537748407
 20
177.73785409860761
 30
0.0
  0
VERTEX
  5
CD3CC
  8
05
 10
106.9530537748408
 20
177.73785409860761
 30
0.0
  0
SEQEND
  5
CD3CD
  8
05
  0
ARC
  5
C947C
  8
035
 10
113.55578993984091
 20
168.83238442043381
 30
0.0
 40
2.5059678859709318
 50
191.36178163593209
 51
348.63821836406782
  0
LINE
  5
C947D
  8
05
 10
114.9363101128408
 20
164.7282063666074
 30
0.0
 11
112.175269766841
 21
164.7282063666074
 31
0.0
  0
LINE
  5
C947E
  8
05
 10
120.8795664508409
 20
164.0730442506075
 30
0.0
 11
124.06178244284089
 21
164.0730442506075
 31
0.0
  0
LINE
  5
C947F
  8
05
 10
124.06178244284089
 20
164.7282063666074
 30
0.0
 11
124.06178244284089
 21
164.0730442506075
 31
0.0
  0
ARC
  5
C9480
  8
035
 10
119.4990462778407
 20
168.83238442043381
 30
0.0
 40
2.5059678859709318
 50
191.36178163593209
 51
348.63821836406782
  0
LINE
  5
C9481
  8
05
 10
114.9363101128408
 20
164.0730442506075
 30
0.0
 11
118.1185261048408
 21
164.0730442506075
 31
0.0
  0
LINE
  5
C9482
  8
05
 10
120.8795664508409
 20
164.7282063666074
 30
0.0
 11
118.1185261048408
 21
164.7282063666074
 31
0.0
  0
LINE
  5
C9483
  8
05
 10
120.8795664508409
 20
164.7282063666074
 30
0.0
 11
120.8795664508409
 21
164.0730442506075
 31
0.0
  0
LINE
  5
C9484
  8
05
 10
118.1185261048408
 20
164.7282063666074
 30
0.0
 11
118.1185261048408
 21
164.0730442506075
 31
0.0
  0
LINE
  5
C9485
  8
05
 10
114.9363101128408
 20
164.7282063666074
 30
0.0
 11
114.9363101128408
 21
164.0730442506075
 31
0.0
  0
LINE
  5
C9486
  8
05
 10
126.82282278884099
 20
164.0730442506075
 30
0.0
 11
130.00503878084069
 21
164.0730442506075
 31
0.0
  0
LINE
  5
C9487
  8
05
 10
126.82282278884099
 20
164.7282063666074
 30
0.0
 11
126.82282278884099
 21
164.0730442506075
 31
0.0
  0
ARC
  5
C9488
  8
035
 10
125.4423026158408
 20
168.83238442043381
 30
0.0
 40
2.5059678859709318
 50
191.36178163593209
 51
348.63821836406782
  0
LINE
  5
C9489
  8
05
 10
126.82282278884099
 20
164.7282063666074
 30
0.0
 11
124.06178244284089
 21
164.7282063666074
 31
0.0
  0
LINE
  5
C948A
  8
05
 10
108.9930537748407
 20
164.0730442506075
 30
0.0
 11
112.175269766841
 21
164.0730442506075
 31
0.0
  0
LINE
  5
C948B
  8
05
 10
112.175269766841
 20
164.7282063666074
 30
0.0
 11
112.175269766841
 21
164.0730442506075
 31
0.0
  0
POLYLINE
  5
C948C
  8
05
 66
     1
 10
0.0
 20
0.0
 30
0.0
  0
VERTEX
  5
CD3CE
  8
05
 10
106.9530537748408
 20
169.1271520026076
 30
0.0
  0
VERTEX
  5
CD3CF
  8
05
 10
108.9930537748407
 20
169.1271520026076
 30
0.0
  0
SEQEND
  5
CD3D0
  8
05
  0
POLYLINE
  5
C94D1
  8
05
 62
     1
 66
     1
 10
0.0
 20
0.0
 30
0.0
  0
VERTEX
  5
CD3D1
  8
05
 62
     1
 10
134.6050387808406
 20
142.79196185060761
 30
0.0
  0
VERTEX
  5
CD3D2
  8
05
 62
     1
 10
72.405038780840542
 20
142.79196185060761
 30
0.0
  0
VERTEX
  5
CD3D3
  8
05
 62
     1
 10
72.405038780840542
 20
147.2377047806076
 30
0.0
  0
SEQEND
  5
CD3D4
  8
05
 62
     1
  0
POLYLINE
  5
C94D7
  8
05
 62
     1
 66
     1
 10
0.0
 20
0.0
 30
0.0
 70
     1
  0
VERTEX
  5
CD3D5
  8
05
 62
     1
 10
72.405038780840542
 20
219.13131303072129
 30
0.0
  0
VERTEX
  5
CD3D6
  8
05
 62
     1
 10
134.6050387808406
 20
219.13131303072129
 30
0.0
  0
VERTEX
  5
CD3D7
  8
05
 62
     1
 10
134.6050387808406
 20
217.63131303072129
 30
0.0
  0
VERTEX
  5
CD3D8
  8
05
 62
     1
 10
72.405038780840542
 20
217.63131303072129
 30
0.0
  0
SEQEND
  5
CD3D9
  8
05
 62
     1
  0
POLYLINE
  5
C9539
  8
05
 66
     1
 10
0.0
 20
0.0
 30
0.0
  0
VERTEX
  5
CD3DA
  8
05
 10
86.059845467527111
 20
226.66339386178481
 30
0.0
  0
VERTEX
  5
CD3DB
  8
05
 10
86.059845467527111
 20
219.1313130307212
 30
0.0
  0
VERTEX
  5
CD3DC
  8
05
 10
82.85871111432516
 20
219.13131303072109
 30
0.0
  0
VERTEX
  5
CD3DD
  8
05
 10
82.85871111432516
 20
226.66339386178481
 30
0.0
  0
SEQEND
  5
CD3DE
  8
05
  0
POLYLINE
  5
C953A
  8
05
 66
     1
 10
0.0
 20
0.0
 30
0.0
  0
VERTEX
  5
CD3DF
  8
05
 10
82.85871111432516
 20
226.66339386178481
 30
0.0
  0
VERTEX
  5
CD3E0
  8
05
 10
83.941447733790483
 20
226.66339386178481
 30
0.0
  0
VERTEX
  5
CD3E1
  8
05
 10
83.941447733790483
 20
233.53641762013009
 30
0.0
  0
VERTEX
  5
CD3E2
  8
05
 10
84.977108848061789
 20
233.53641762013009
 30
0.0
  0
VERTEX
  5
CD3E3
  8
05
 10
84.977108848061789
 20
226.66339386178481
 30
0.0
  0
VERTEX
  5
CD3E4
  8
05
 10
86.059845467527111
 20
226.66339386178481
 30
0.0
  0
SEQEND
  5
CD3E5
  8
05
  0
LINE
  5
C953B
  8
MITTE
 10
100.1001534002653
 20
226.08435891259199
 30
0.0
 11
68.666542396489604
 21
226.08435891259199
 31
0.0
  0
POLYLINE
  5
C953F
  8
05
 66
     1
 10
0.0
 20
0.0
 30
0.0
  0
VERTEX
  5
CD3E6
  8
05
 10
80.081256307870717
 20
226.66339386178481
 30
0.0
  0
VERTEX
  5
CD3E7
  8
05
 10
80.081256307870717
 20
219.1313130307212
 30
0.0
  0
VERTEX
  5
CD3E8
  8
05
 10
78.104085089716591
 20
219.13131303072129
 30
0.0
  0
VERTEX
  5
CD3E9
  8
05
 10
78.104085089716591
 20
220.54357818654569
 30
0.0
  0
VERTEX
  5
CD3EA
  8
05
 10
76.880121954668525
 20
220.54357818654569
 30
0.0
  0
SEQEND
  5
CD3EB
  8
05
  0
POLYLINE
  5
C9540
  8
05
 66
     1
 10
0.0
 20
0.0
 30
0.0
  0
VERTEX
  5
CD3EC
  8
05
 10
76.880121954668525
 20
220.5435781865456
 30
0.0
  0
VERTEX
  5
CD3ED
  8
05
 10
76.880121954668525
 20
233.53641762013009
 30
0.0
  0
VERTEX
  5
CD3EE
  8
05
 10
78.998519688405167
 20
233.53641762013009
 30
0.0
  0
VERTEX
  5
CD3EF
  8
05
 10
78.998519688405167
 20
226.66339386178481
 30
0.0
  0
VERTEX
  5
CD3F0
  8
05
 10
80.081256307870717
 20
226.66339386178481
 30
0.0
  0
SEQEND
  5
CD3F1
  8
05
  0
POLYLINE
  5
C9572
  8
05
 66
     1
 10
0.0
 20
0.0
 30
0.0
  0
VERTEX
  5
CD3F2
  8
05
 10
92.038434627183506
 20
226.66339386178481
 30
0.0
  0
VERTEX
  5
CD3F3
  8
05
 10
92.038434627183506
 20
219.13131303072129
 30
0.0
  0
VERTEX
  5
CD3F4
  8
05
 10
88.837300273981768
 20
219.13131303072129
 30
0.0
  0
VERTEX
  5
CD3F5
  8
05
 10
88.837300273981768
 20
226.66339386178481
 30
0.0
  0
SEQEND
  5
CD3F6
  8
05
  0
POLYLINE
  5
C9573
  8
05
 66
     1
 10
0.0
 20
0.0
 30
0.0
  0
VERTEX
  5
CD3F7
  8
05
 10
94.815889433638176
 20
226.66339386178481
 30
0.0
  0
VERTEX
  5
CD3F8
  8
05
 10
95.898626053103953
 20
226.66339386178481
 30
0.0
  0
VERTEX
  5
CD3F9
  8
05
 10
95.898626053103953
 20
233.53641762013009
 30
0.0
  0
VERTEX
  5
CD3FA
  8
05
 10
98.017023786840355
 20
233.53641762013009
 30
0.0
  0
VERTEX
  5
CD3FB
  8
05
 10
98.017023786840355
 20
219.13131303072129
 30
0.0
  0
VERTEX
  5
CD3FC
  8
05
 10
94.815889433638176
 20
219.13131303072129
 30
0.0
  0
VERTEX
  5
CD3FD
  8
05
 10
94.815889433638176
 20
226.66339386178481
 30
0.0
  0
SEQEND
  5
CD3FE
  8
05
  0
POLYLINE
  5
C9587
  8
05
 66
     1
 10
0.0
 20
0.0
 30
0.0
  0
VERTEX
  5
CD3FF
  8
05
 10
88.837300273981768
 20
226.66339386178481
 30
0.0
  0
VERTEX
  5
CD400
  8
05
 10
89.920036893446877
 20
226.66339386178481
 30
0.0
  0
VERTEX
  5
CD401
  8
05
 10
89.920036893446877
 20
233.53641762013009
 30
0.0
  0
VERTEX
  5
CD402
  8
05
 10
90.955698007718411
 20
233.53641762013009
 30
0.0
  0
VERTEX
  5
CD403
  8
05
 10
90.955698007718411
 20
226.66339386178481
 30
0.0
  0
VERTEX
  5
CD404
  8
05
 10
92.038434627183506
 20
226.6633938617847
 30
0.0
  0
SEQEND
  5
CD405
  8
05
  0
POLYLINE
  5
C95A5
  8
05
 66
     1
 10
0.0
 20
0.0
 30
0.0
  0
VERTEX
  5
CD406
  8
05
 10
76.880121954668525
 20
221.1706430425921
 30
0.0
  0
VERTEX
  5
CD407
  8
05
 10
69.860527854668362
 20
221.1706430425921
 30
0.0
  0
VERTEX
  5
CD408
  8
05
 10
68.924581974668399
 20
222.1065889225921
 30
0.0
  0
VERTEX
  5
CD409
  8
05
 10
68.924581974668399
 20
230.06212890259209
 30
0.0
  0
VERTEX
  5
CD40A
  8
05
 10
69.860527854668362
 20
230.99807478259211
 30
0.0
  0
VERTEX
  5
CD40B
  8
05
 10
76.880121954668525
 20
230.99807478259211
 30
0.0
  0
SEQEND
  5
CD40C
  8
05
  0
LINE
  5
C95A6
  8
05
 10
69.860527854668589
 20
221.1706430425921
 30
0.0
 11
69.860527854668589
 21
230.99807478259211
 31
0.0
  0
ARC
  5
C95A7
  8
05
 10
84.385842223387272
 20
226.08435891259211
 30
0.0
 40
16.25183002745322
 50
344.63810700721291
 51
15.361892992787149
  0
LINE
  5
C95A8
  8
05
 10
100.0570237868403
 20
221.77900786459179
 30
0.0
 11
100.0570237868403
 21
230.389709960592
 31
0.0
  0
POLYLINE
  5
C95A9
  8
05
 66
     1
 10
0.0
 20
0.0
 30
0.0
  0
VERTEX
  5
CD40D
  8
05
 10
98.017023786840355
 20
221.7790078645921
 30
0.0
  0
VERTEX
  5
CD40E
  8
05
 10
100.0570237868403
 20
221.7790078645921
 30
0.0
  0
SEQEND
  5
CD40F
  8
05
  0
POLYLINE
  5
C95AA
  8
05
 66
     1
 10
0.0
 20
0.0
 30
0.0
  0
VERTEX
  5
CD410
  8
05
 10
100.0570237868403
 20
230.38970996059211
 30
0.0
  0
VERTEX
  5
CD411
  8
05
 10
98.017023786840355
 20
230.38970996059211
 30
0.0
  0
SEQEND
  5
CD412
  8
05
  0
LINE
  5
C95C1
  8
05
 10
89.498519688405167
 20
226.6633938617847
 30
0.0
 11
91.698519688404986
 21
226.6633938617847
 31
0.0
  0
LINE
  5
C95C6
  8
035
 10
78.998519688405167
 20
232.73124333853201
 30
0.0
 11
83.941447733790483
 21
232.73124333853201
 31
0.0
  0
LINE
  5
C95C7
  8
035
 10
90.955698007718638
 20
232.73124333853201
 30
0.0
 11
95.898626053103953
 21
232.73124333853201
 31
0.0
  0
LINE
  5
C95D0
  8
035
 10
84.977108848061789
 20
232.73124333853201
 30
0.0
 11
89.920036893447104
 21
232.73124333853201
 31
0.0
  0
CIRCLE
  5
C95D3
  8
035
 10
81.469983711097925
 20
221.36345627837801
 30
0.0
 40
0.4707550519414692
  0
CIRCLE
  5
C95D4
  8
035
 10
87.44857287075456
 20
221.36345627837801
 30
0.0
 40
0.4707550519414692
  0
CIRCLE
  5
C95D5
  8
035
 10
93.427162030411196
 20
221.36345627837801
 30
0.0
 40
0.4707550519414692
  0
ARC
  5
C95D8
  8
025
 10
81.469983711097726
 20
223.0534031661341
 30
0.0
 40
5.5971086497422782
 50
255.6339960575539
 51
284.3660039424413
  0
ARC
  5
C95D9
  8
025
 10
87.448572870754106
 20
223.0534031661343
 30
0.0
 40
5.5971086497422782
 50
255.6339960575539
 51
284.3660039424413
  0
ARC
  5
C95DA
  8
025
 10
93.427162030410486
 20
223.05340316613439
 30
0.0
 40
5.5971086497422782
 50
255.6339960575539
 51
284.3660039424413
  0
LINE
  5
C95DB
  8
05
 10
106.9530537748408
 20
221.77900786459179
 30
0.0
 11
106.9530537748408
 21
230.389709960592
 31
0.0
  0
ARC
  5
C95DC
  8
05
 10
122.6242353382938
 20
226.08435891259211
 30
0.0
 40
16.25183002745322
 50
164.6381070072128
 51
195.36189299278709
  0
LINE
  5
C95DD
  8
05
 10
137.14954970701251
 20
221.1706430425921
 30
0.0
 11
137.14954970701251
 21
230.99807478259211
 31
0.0
  0
POLYLINE
  5
C95DE
  8
05
 66
     1
 10
0.0
 20
0.0
 30
0.0
  0
VERTEX
  5
CD413
  8
05
 10
130.1299556070125
 20
221.1706430425921
 30
0.0
  0
VERTEX
  5
CD414
  8
05
 10
137.14954970701271
 20
221.1706430425921
 30
0.0
  0
VERTEX
  5
CD415
  8
05
 10
138.0854955870127
 20
222.1065889225921
 30
0.0
  0
VERTEX
  5
CD416
  8
05
 10
138.0854955870127
 20
230.06212890259209
 30
0.0
  0
VERTEX
  5
CD417
  8
05
 10
137.14954970701271
 20
230.99807478259211
 30
0.0
  0
VERTEX
  5
CD418
  8
05
 10
130.1299556070125
 20
230.99807478259211
 30
0.0
  0
SEQEND
  5
CD419
  8
05
  0
POLYLINE
  5
C95DF
  8
05
 66
     1
 10
0.0
 20
0.0
 30
0.0
  0
VERTEX
  5
CD41A
  8
05
 10
126.9288212538103
 20
226.66339386178481
 30
0.0
  0
VERTEX
  5
CD41B
  8
05
 10
126.9288212538103
 20
219.1313130307212
 30
0.0
  0
VERTEX
  5
CD41C
  8
05
 10
128.90599247196451
 20
219.13131303072129
 30
0.0
  0
VERTEX
  5
CD41D
  8
05
 10
128.90599247196451
 20
220.54357818654569
 30
0.0
  0
VERTEX
  5
CD41E
  8
05
 10
130.1299556070125
 20
220.54357818654569
 30
0.0
  0
SEQEND
  5
CD41F
  8
05
  0
POLYLINE
  5
C95E0
  8
05
 66
     1
 10
0.0
 20
0.0
 30
0.0
  0
VERTEX
  5
CD420
  8
05
 10
114.97164293449759
 20
226.66339386178481
 30
0.0
  0
VERTEX
  5
CD421
  8
05
 10
114.97164293449759
 20
219.13131303072129
 30
0.0
  0
VERTEX
  5
CD422
  8
05
 10
118.1727772876993
 20
219.13131303072129
 30
0.0
  0
VERTEX
  5
CD423
  8
05
 10
118.1727772876993
 20
226.66339386178481
 30
0.0
  0
SEQEND
  5
CD424
  8
05
  0
POLYLINE
  5
C95E1
  8
05
 66
     1
 10
0.0
 20
0.0
 30
0.0
  0
VERTEX
  5
CD425
  8
05
 10
120.950232094154
 20
226.66339386178481
 30
0.0
  0
VERTEX
  5
CD426
  8
05
 10
120.950232094154
 20
219.1313130307212
 30
0.0
  0
VERTEX
  5
CD427
  8
05
 10
124.1513664473559
 20
219.13131303072109
 30
0.0
  0
VERTEX
  5
CD428
  8
05
 10
124.1513664473559
 20
226.66339386178481
 30
0.0
  0
SEQEND
  5
CD429
  8
05
  0
POLYLINE
  5
C95E2
  8
05
 66
     1
 10
0.0
 20
0.0
 30
0.0
  0
VERTEX
  5
CD42A
  8
05
 10
130.1299556070125
 20
220.5435781865456
 30
0.0
  0
VERTEX
  5
CD42B
  8
05
 10
130.1299556070125
 20
233.53641762013009
 30
0.0
  0
VERTEX
  5
CD42C
  8
05
 10
128.0115578732759
 20
233.53641762013009
 30
0.0
  0
VERTEX
  5
CD42D
  8
05
 10
128.0115578732759
 20
226.66339386178481
 30
0.0
  0
VERTEX
  5
CD42E
  8
05
 10
126.9288212538103
 20
226.66339386178481
 30
0.0
  0
SEQEND
  5
CD42F
  8
05
  0
POLYLINE
  5
C95E3
  8
05
 66
     1
 10
0.0
 20
0.0
 30
0.0
  0
VERTEX
  5
CD430
  8
05
 10
112.1941881280429
 20
226.66339386178481
 30
0.0
  0
VERTEX
  5
CD431
  8
05
 10
111.1114515085771
 20
226.66339386178481
 30
0.0
  0
VERTEX
  5
CD432
  8
05
 10
111.1114515085771
 20
233.53641762013009
 30
0.0
  0
VERTEX
  5
CD433
  8
05
 10
108.9930537748407
 20
233.53641762013009
 30
0.0
  0
VERTEX
  5
CD434
  8
05
 10
108.9930537748407
 20
219.13131303072129
 30
0.0
  0
VERTEX
  5
CD435
  8
05
 10
112.1941881280429
 20
219.13131303072129
 30
0.0
  0
VERTEX
  5
CD436
  8
05
 10
112.1941881280429
 20
226.66339386178481
 30
0.0
  0
SEQEND
  5
CD437
  8
05
  0
ARC
  5
C95E4
  8
025
 10
113.5829155312706
 20
223.05340316613439
 30
0.0
 40
5.5971086497422782
 50
255.6339960575587
 51
284.36600394244613
  0
ARC
  5
C95E5
  8
025
 10
119.56150469092699
 20
223.0534031661343
 30
0.0
 40
5.5971086497422782
 50
255.6339960575587
 51
284.36600394244613
  0
ARC
  5
C95E6
  8
025
 10
125.5400938505834
 20
223.0534031661341
 30
0.0
 40
5.5971086497422782
 50
255.6339960575587
 51
284.36600394244613
  0
CIRCLE
  5
C95E9
  8
035
 10
125.5400938505831
 20
221.36345627837801
 30
0.0
 40
0.4707550519414692
  0
POLYLINE
  5
C9602
  8
05
 66
     1
 10
0.0
 20
0.0
 30
0.0
  0
VERTEX
  5
CD438
  8
05
 10
108.9930537748407
 20
221.7790078645921
 30
0.0
  0
VERTEX
  5
CD439
  8
05
 10
106.9530537748408
 20
221.7790078645921
 30
0.0
  0
SEQEND
  5
CD43A
  8
05
  0
LINE
  5
C9603
  8
MITTE
 10
106.9099241614158
 20
226.08435891259199
 30
0.0
 11
138.3435351651915
 21
226.08435891259199
 31
0.0
  0
LINE
  5
C9604
  8
035
 10
116.05437955396241
 20
232.73124333853201
 30
0.0
 11
111.1114515085771
 21
232.73124333853201
 31
0.0
  0
LINE
  5
C9605
  8
035
 10
122.0329687136193
 20
232.73124333853201
 30
0.0
 11
117.090040668234
 21
232.73124333853201
 31
0.0
  0
LINE
  5
C9606
  8
035
 10
128.0115578732759
 20
232.73124333853201
 30
0.0
 11
123.0686298278906
 21
232.73124333853201
 31
0.0
  0
LINE
  5
C9607
  8
05
 10
117.5115578732759
 20
226.6633938617847
 30
0.0
 11
115.3115578732761
 21
226.6633938617847
 31
0.0
  0
POLYLINE
  5
C9608
  8
05
 66
     1
 10
0.0
 20
0.0
 30
0.0
  0
VERTEX
  5
CD43B
  8
05
 10
118.1727772876993
 20
226.66339386178481
 30
0.0
  0
VERTEX
  5
CD43C
  8
05
 10
117.0900406682342
 20
226.66339386178481
 30
0.0
  0
VERTEX
  5
CD43D
  8
05
 10
117.0900406682342
 20
233.53641762013009
 30
0.0
  0
VERTEX
  5
CD43E
  8
05
 10
116.0543795539627
 20
233.53641762013009
 30
0.0
  0
VERTEX
  5
CD43F
  8
05
 10
116.0543795539627
 20
226.66339386178481
 30
0.0
  0
VERTEX
  5
CD440
  8
05
 10
114.97164293449759
 20
226.6633938617847
 30
0.0
  0
SEQEND
  5
CD441
  8
05
  0
POLYLINE
  5
C9609
  8
05
 66
     1
 10
0.0
 20
0.0
 30
0.0
  0
VERTEX
  5
CD442
  8
05
 10
124.1513664473559
 20
226.66339386178481
 30
0.0
  0
VERTEX
  5
CD443
  8
05
 10
123.0686298278906
 20
226.66339386178481
 30
0.0
  0
VERTEX
  5
CD444
  8
05
 10
123.0686298278906
 20
233.53641762013009
 30
0.0
  0
VERTEX
  5
CD445
  8
05
 10
122.0329687136193
 20
233.53641762013009
 30
0.0
  0
VERTEX
  5
CD446
  8
05
 10
122.0329687136193
 20
226.66339386178481
 30
0.0
  0
VERTEX
  5
CD447
  8
05
 10
120.950232094154
 20
226.66339386178481
 30
0.0
  0
SEQEND
  5
CD448
  8
05
  0
POLYLINE
  5
C960A
  8
05
 66
     1
 10
0.0
 20
0.0
 30
0.0
  0
VERTEX
  5
CD449
  8
05
 10
106.9530537748408
 20
230.38970996059211
 30
0.0
  0
VERTEX
  5
CD44A
  8
05
 10
108.9930537748407
 20
230.38970996059211
 30
0.0
  0
SEQEND
  5
CD44B
  8
05
  0
LINE
  5
C960B
  8
025
 10
115.76338085314769
 20
230.78429439286191
 30
0.0
 11
115.3159429149534
 21
230.78429439286191
 31
0.0
  0
LINE
  5
C960C
  8
025
 10
122.0329687136193
 20
230.78429439286191
 30
0.0
 11
119.3692223297935
 21
230.78429439286191
 31
0.0
  0
LINE
  5
C960D
  8
025
 10
127.7916151809891
 20
230.78429439286191
 30
0.0
 11
127.3968170002294
 21
230.78429439286191
 31
0.0
  0
LINE
  5
C960E
  8
025
 10
114.9211447341936
 20
230.78429439286191
 30
0.0
 11
113.97362457727689
 21
230.78429439286191
 31
0.0
  0
LINE
  5
C960F
  8
025
 10
113.5525019947067
 20
230.78429439286191
 30
0.0
 11
111.315303257548
 21
230.78429439286191
 31
0.0
  0
LINE
  5
C9610
  8
025
 10
117.7110609244159
 20
230.78429439286191
 30
0.0
 11
117.3162627436561
 21
230.78429439286191
 31
0.0
  0
LINE
  5
C9611
  8
025
 10
118.92177986850631
 20
230.78429439286191
 30
0.0
 11
118.1848232644213
 21
230.78429439286191
 31
0.0
  0
LINE
  5
C9612
  8
025
 10
126.9230546602243
 20
230.78429439286191
 30
0.0
 11
126.55457635818171
 21
230.78429439286191
 31
0.0
  0
LINE
  5
C9613
  8
025
 10
126.21241793485611
 20
230.78429439286191
 30
0.0
 11
123.2908978279542
 21
230.78429439286191
 31
0.0
  0
POLYLINE
  5
C9614
  8
025
 10
111.11145150857713
 20
227.52258320194969
 30
0.0
 66
     1
 70
     8
  0
VERTEX
  8
025
  5
CD50D
 10
111.111
 20
227.523
 30
0.000000
  70
    32
  0
VERTEX
  8
025
  5
CD50E
 10
111.112
 20
227.509
 30
0.000000
  70
    32
  0
VERTEX
  8
025
  5
CD50F
 10
111.114
 20
227.496
 30
0.000000
  70
    32
  0
VERTEX
  8
025
  5
CD510
 10
111.118
 20
227.483
 30
0.000000
  70
    32
  0
VERTEX
  8
025
  5
CD511
 10
111.123
 20
227.470
 30
0.000000
  70
    32
  0
VERTEX
  8
025
  5
CD512
 10
111.130
 20
227.457
 30
0.000000
  70
    32
  0
VERTEX
  8
025
  5
CD513
 10
111.138
 20
227.444
 30
0.000000
  70
    32
  0
VERTEX
  8
025
  5
CD514
 10
111.148
 20
227.431
 30
0.000000
  70
    32
  0
VERTEX
  8
025
  5
CD515
 10
111.159
 20
227.418
 30
0.000000
  70
    32
  0
VERTEX
  8
025
  5
CD516
 10
111.172
 20
227.405
 30
0.000000
  70
    32
  0
VERTEX
  8
025
  5
CD517
 10
111.186
 20
227.392
 30
0.000000
  70
    32
  0
VERTEX
  8
025
  5
CD518
 10
111.201
 20
227.379
 30
0.000000
  70
    32
  0
VERTEX
  8
025
  5
CD519
 10
111.218
 20
227.366
 30
0.000000
  70
    32
  0
VERTEX
  8
025
  5
CD51A
 10
111.236
 20
227.354
 30
0.000000
  70
    32
  0
VERTEX
  8
025
  5
CD51B
 10
111.256
 20
227.341
 30
0.000000
  70
    32
  0
VERTEX
  8
025
  5
CD51C
 10
111.277
 20
227.329
 30
0.000000
  70
    32
  0
VERTEX
  8
025
  5
CD51D
 10
111.300
 20
227.317
 30
0.000000
  70
    32
  0
VERTEX
  8
025
  5
CD51E
 10
111.323
 20
227.304
 30
0.000000
  70
    32
  0
VERTEX
  8
025
  5
CD51F
 10
111.349
 20
227.292
 30
0.000000
  70
    32
  0
VERTEX
  8
025
  5
CD520
 10
111.375
 20
227.281
 30
0.000000
  70
    32
  0
VERTEX
  8
025
  5
CD521
 10
111.403
 20
227.269
 30
0.000000
  70
    32
  0
VERTEX
  8
025
  5
CD522
 10
111.433
 20
227.257
 30
0.000000
  70
    32
  0
VERTEX
  8
025
  5
CD523
 10
111.463
 20
227.246
 30
0.000000
  70
    32
  0
VERTEX
  8
025
  5
CD524
 10
111.495
 20
227.235
 30
0.000000
  70
    32
  0
VERTEX
  8
025
  5
CD525
 10
111.528
 20
227.224
 30
0.000000
  70
    32
  0
VERTEX
  8
025
  5
CD526
 10
111.562
 20
227.213
 30
0.000000
  70
    32
  0
VERTEX
  8
025
  5
CD527
 10
111.598
 20
227.202
 30
0.000000
  70
    32
  0
VERTEX
  8
025
  5
CD528
 10
111.635
 20
227.191
 30
0.000000
  70
    32
  0
VERTEX
  8
025
  5
CD529
 10
111.672
 20
227.181
 30
0.000000
  70
    32
  0
VERTEX
  8
025
  5
CD52A
 10
111.712
 20
227.171
 30
0.000000
  70
    32
  0
VERTEX
  8
025
  5
CD52B
 10
111.752
 20
227.161
 30
0.000000
  70
    32
  0
VERTEX
  8
025
  5
CD52C
 10
111.793
 20
227.151
 30
0.000000
  70
    32
  0
VERTEX
  8
025
  5
CD52D
 10
111.835
 20
227.142
 30
0.000000
  70
    32
  0
VERTEX
  8
025
  5
CD52E
 10
111.879
 20
227.133
 30
0.000000
  70
    32
  0
VERTEX
  8
025
  5
CD52F
 10
111.923
 20
227.124
 30
0.000000
  70
    32
  0
VERTEX
  8
025
  5
CD530
 10
111.969
 20
227.115
 30
0.000000
  70
    32
  0
VERTEX
  8
025
  5
CD531
 10
112.015
 20
227.106
 30
0.000000
  70
    32
  0
VERTEX
  8
025
  5
CD532
 10
112.062
 20
227.098
 30
0.000000
  70
    32
  0
VERTEX
  8
025
  5
CD533
 10
112.111
 20
227.090
 30
0.000000
  70
    32
  0
VERTEX
  8
025
  5
CD534
 10
112.160
 20
227.082
 30
0.000000
  70
    32
  0
VERTEX
  8
025
  5
CD535
 10
112.210
 20
227.075
 30
0.000000
  70
    32
  0
VERTEX
  8
025
  5
CD536
 10
112.261
 20
227.068
 30
0.000000
  70
    32
  0
VERTEX
  8
025
  5
CD537
 10
112.312
 20
227.061
 30
0.000000
  70
    32
  0
VERTEX
  8
025
  5
CD538
 10
112.365
 20
227.054
 30
0.000000
  70
    32
  0
VERTEX
  8
025
  5
CD539
 10
112.418
 20
227.048
 30
0.000000
  70
    32
  0
VERTEX
  8
025
  5
CD53A
 10
112.472
 20
227.042
 30
0.000000
  70
    32
  0
VERTEX
  8
025
  5
CD53B
 10
112.526
 20
227.036
 30
0.000000
  70
    32
  0
VERTEX
  8
025
  5
CD53C
 10
112.581
 20
227.030
 30
0.000000
  70
    32
  0
VERTEX
  8
025
  5
CD53D
 10
112.637
 20
227.025
 30
0.000000
  70
    32
  0
VERTEX
  8
025
  5
CD53E
 10
112.693
 20
227.020
 30
0.000000
  70
    32
  0
VERTEX
  8
025
  5
CD53F
 10
112.750
 20
227.016
 30
0.000000
  70
    32
  0
VERTEX
  8
025
  5
CD540
 10
112.808
 20
227.011
 30
0.000000
  70
    32
  0
VERTEX
  8
025
  5
CD541
 10
112.865
 20
227.007
 30
0.000000
  70
    32
  0
VERTEX
  8
025
  5
CD542
 10
112.924
 20
227.004
 30
0.000000
  70
    32
  0
VERTEX
  8
025
  5
CD543
 10
112.982
 20
227.000
 30
0.000000
  70
    32
  0
VERTEX
  8
025
  5
CD544
 10
113.041
 20
226.997
 30
0.000000
  70
    32
  0
VERTEX
  8
025
  5
CD545
 10
113.101
 20
226.995
 30
0.000000
  70
    32
  0
VERTEX
  8
025
  5
CD546
 10
113.160
 20
226.992
 30
0.000000
  70
    32
  0
VERTEX
  8
025
  5
CD547
 10
113.220
 20
226.990
 30
0.000000
  70
    32
  0
VERTEX
  8
025
  5
CD548
 10
113.280
 20
226.988
 30
0.000000
  70
    32
  0
VERTEX
  8
025
  5
CD549
 10
113.341
 20
226.987
 30
0.000000
  70
    32
  0
VERTEX
  8
025
  5
CD54A
 10
113.401
 20
226.986
 30
0.000000
  70
    32
  0
VERTEX
  8
025
  5
CD54B
 10
113.462
 20
226.985
 30
0.000000
  70
    32
  0
VERTEX
  8
025
  5
CD54C
 10
113.522
 20
226.984
 30
0.000000
  70
    32
  0
VERTEX
  8
025
  5
CD54D
 10
113.583
 20
226.984
 30
0.000000
  70
    32
  0
VERTEX
  8
025
  5
CD54E
 10
113.644
 20
226.984
 30
0.000000
  70
    32
  0
VERTEX
  8
025
  5
CD54F
 10
113.704
 20
226.985
 30
0.000000
  70
    32
  0
VERTEX
  8
025
  5
CD550
 10
113.765
 20
226.986
 30
0.000000
  70
    32
  0
VERTEX
  8
025
  5
CD551
 10
113.825
 20
226.987
 30
0.000000
  70
    32
  0
VERTEX
  8
025
  5
CD552
 10
113.885
 20
226.988
 30
0.000000
  70
    32
  0
VERTEX
  8
025
  5
CD553
 10
113.946
 20
226.990
 30
0.000000
  70
    32
  0
VERTEX
  8
025
  5
CD554
 10
114.005
 20
226.992
 30
0.000000
  70
    32
  0
VERTEX
  8
025
  5
CD555
 10
114.065
 20
226.995
 30
0.000000
  70
    32
  0
VERTEX
  8
025
  5
CD556
 10
114.124
 20
226.997
 30
0.000000
  70
    32
  0
VERTEX
  8
025
  5
CD557
 10
114.183
 20
227.000
 30
0.000000
  70
    32
  0
VERTEX
  8
025
  5
CD558
 10
114.242
 20
227.004
 30
0.000000
  70
    32
  0
VERTEX
  8
025
  5
CD559
 10
114.300
 20
227.007
 30
0.000000
  70
    32
  0
VERTEX
  8
025
  5
CD55A
 10
114.358
 20
227.011
 30
0.000000
  70
    32
  0
VERTEX
  8
025
  5
CD55B
 10
114.416
 20
227.016
 30
0.000000
  70
    32
  0
VERTEX
  8
025
  5
CD55C
 10
114.472
 20
227.020
 30
0.000000
  70
    32
  0
VERTEX
  8
025
  5
CD55D
 10
114.529
 20
227.025
 30
0.000000
  70
    32
  0
VERTEX
  8
025
  5
CD55E
 10
114.584
 20
227.030
 30
0.000000
  70
    32
  0
VERTEX
  8
025
  5
CD55F
 10
114.640
 20
227.036
 30
0.000000
  70
    32
  0
VERTEX
  8
025
  5
CD560
 10
114.694
 20
227.042
 30
0.000000
  70
    32
  0
VERTEX
  8
025
  5
CD561
 10
114.748
 20
227.048
 30
0.000000
  70
    32
  0
VERTEX
  8
025
  5
CD562
 10
114.801
 20
227.054
 30
0.000000
  70
    32
  0
VERTEX
  8
025
  5
CD563
 10
114.854
 20
227.061
 30
0.000000
  70
    32
  0
VERTEX
  8
025
  5
CD564
 10
114.905
 20
227.068
 30
0.000000
  70
    32
  0
VERTEX
  8
025
  5
CD565
 10
114.956
 20
227.075
 30
0.000000
  70
    32
  0
VERTEX
  8
025
  5
CD566
 10
115.006
 20
227.082
 30
0.000000
  70
    32
  0
VERTEX
  8
025
  5
CD567
 10
115.055
 20
227.090
 30
0.000000
  70
    32
  0
VERTEX
  8
025
  5
CD568
 10
115.103
 20
227.098
 30
0.000000
  70
    32
  0
VERTEX
  8
025
  5
CD569
 10
115.151
 20
227.106
 30
0.000000
  70
    32
  0
VERTEX
  8
025
  5
CD56A
 10
115.197
 20
227.115
 30
0.000000
  70
    32
  0
VERTEX
  8
025
  5
CD56B
 10
115.243
 20
227.124
 30
0.000000
  70
    32
  0
VERTEX
  8
025
  5
CD56C
 10
115.287
 20
227.133
 30
0.000000
  70
    32
  0
VERTEX
  8
025
  5
CD56D
 10
115.331
 20
227.142
 30
0.000000
  70
    32
  0
VERTEX
  8
025
  5
CD56E
 10
115.373
 20
227.151
 30
0.000000
  70
    32
  0
VERTEX
  8
025
  5
CD56F
 10
115.414
 20
227.161
 30
0.000000
  70
    32
  0
VERTEX
  8
025
  5
CD570
 10
115.454
 20
227.171
 30
0.000000
  70
    32
  0
VERTEX
  8
025
  5
CD571
 10
115.493
 20
227.181
 30
0.000000
  70
    32
  0
VERTEX
  8
025
  5
CD572
 10
115.531
 20
227.191
 30
0.000000
  70
    32
  0
VERTEX
  8
025
  5
CD573
 10
115.568
 20
227.202
 30
0.000000
  70
    32
  0
VERTEX
  8
025
  5
CD574
 10
115.604
 20
227.213
 30
0.000000
  70
    32
  0
VERTEX
  8
025
  5
CD575
 10
115.638
 20
227.224
 30
0.000000
  70
    32
  0
VERTEX
  8
025
  5
CD576
 10
115.671
 20
227.235
 30
0.000000
  70
    32
  0
VERTEX
  8
025
  5
CD577
 10
115.703
 20
227.246
 30
0.000000
  70
    32
  0
VERTEX
  8
025
  5
CD578
 10
115.733
 20
227.257
 30
0.000000
  70
    32
  0
VERTEX
  8
025
  5
CD579
 10
115.763
 20
227.269
 30
0.000000
  70
    32
  0
VERTEX
  8
025
  5
CD57A
 10
115.790
 20
227.281
 30
0.000000
  70
    32
  0
VERTEX
  8
025
  5
CD57B
 10
115.817
 20
227.292
 30
0.000000
  70
    32
  0
VERTEX
  8
025
  5
CD57C
 10
115.842
 20
227.304
 30
0.000000
  70
    32
  0
VERTEX
  8
025
  5
CD57D
 10
115.866
 20
227.317
 30
0.000000
  70
    32
  0
VERTEX
  8
025
  5
CD57E
 10
115.889
 20
227.329
 30
0.000000
  70
    32
  0
VERTEX
  8
025
  5
CD57F
 10
115.910
 20
227.341
 30
0.000000
  70
    32
  0
VERTEX
  8
025
  5
CD580
 10
115.930
 20
227.354
 30
0.000000
  70
    32
  0
VERTEX
  8
025
  5
CD581
 10
115.948
 20
227.366
 30
0.000000
  70
    32
  0
VERTEX
  8
025
  5
CD582
 10
115.965
 20
227.379
 30
0.000000
  70
    32
  0
VERTEX
  8
025
  5
CD583
 10
115.980
 20
227.392
 30
0.000000
  70
    32
  0
VERTEX
  8
025
  5
CD584
 10
115.994
 20
227.405
 30
0.000000
  70
    32
  0
VERTEX
  8
025
  5
CD585
 10
116.007
 20
227.418
 30
0.000000
  70
    32
  0
VERTEX
  8
025
  5
CD586
 10
116.018
 20
227.431
 30
0.000000
  70
    32
  0
VERTEX
  8
025
  5
CD587
 10
116.028
 20
227.444
 30
0.000000
  70
    32
  0
VERTEX
  8
025
  5
CD588
 10
116.036
 20
227.457
 30
0.000000
  70
    32
  0
VERTEX
  8
025
  5
CD589
 10
116.042
 20
227.470
 30
0.000000
  70
    32
  0
VERTEX
  8
025
  5
CD58A
 10
116.048
 20
227.483
 30
0.000000
  70
    32
  0
VERTEX
  8
025
  5
CD58B
 10
116.051
 20
227.496
 30
0.000000
  70
    32
  0
VERTEX
  8
025
  5
CD58C
 10
116.054
 20
227.509
 30
0.000000
  70
    32
  0
VERTEX
  8
025
  5
CD58D
 10
116.054
 20
227.523
 30
0.000000
  70
    32
  0
SEQEND
  8
025
  5
CD58E
  0
POLYLINE
  5
C9615
  8
05
 10
111.11145150857713
 20
227.33845262663971
 30
0.0
 66
     1
 70
     8
  0
VERTEX
  8
05
  5
CD58F
 10
111.111
 20
227.338
 30
0.000000
  70
    32
  0
VERTEX
  8
05
  5
CD590
 10
111.112
 20
227.325
 30
0.000000
  70
    32
  0
VERTEX
  8
05
  5
CD591
 10
111.114
 20
227.312
 30
0.000000
  70
    32
  0
VERTEX
  8
05
  5
CD592
 10
111.118
 20
227.299
 30
0.000000
  70
    32
  0
VERTEX
  8
05
  5
CD593
 10
111.123
 20
227.286
 30
0.000000
  70
    32
  0
VERTEX
  8
05
  5
CD594
 10
111.130
 20
227.273
 30
0.000000
  70
    32
  0
VERTEX
  8
05
  5
CD595
 10
111.138
 20
227.259
 30
0.000000
  70
    32
  0
VERTEX
  8
05
  5
CD596
 10
111.148
 20
227.246
 30
0.000000
  70
    32
  0
VERTEX
  8
05
  5
CD597
 10
111.159
 20
227.233
 30
0.000000
  70
    32
  0
VERTEX
  8
05
  5
CD598
 10
111.172
 20
227.221
 30
0.000000
  70
    32
  0
VERTEX
  8
05
  5
CD599
 10
111.186
 20
227.208
 30
0.000000
  70
    32
  0
VERTEX
  8
05
  5
CD59A
 10
111.201
 20
227.195
 30
0.000000
  70
    32
  0
VERTEX
  8
05
  5
CD59B
 10
111.218
 20
227.182
 30
0.000000
  70
    32
  0
VERTEX
  8
05
  5
CD59C
 10
111.236
 20
227.170
 30
0.000000
  70
    32
  0
VERTEX
  8
05
  5
CD59D
 10
111.256
 20
227.157
 30
0.000000
  70
    32
  0
VERTEX
  8
05
  5
CD59E
 10
111.277
 20
227.145
 30
0.000000
  70
    32
  0
VERTEX
  8
05
  5
CD59F
 10
111.300
 20
227.132
 30
0.000000
  70
    32
  0
VERTEX
  8
05
  5
CD5A0
 10
111.323
 20
227.120
 30
0.000000
  70
    32
  0
VERTEX
  8
05
  5
CD5A1
 10
111.349
 20
227.108
 30
0.000000
  70
    32
  0
VERTEX
  8
05
  5
CD5A2
 10
111.375
 20
227.096
 30
0.000000
  70
    32
  0
VERTEX
  8
05
  5
CD5A3
 10
111.403
 20
227.085
 30
0.000000
  70
    32
  0
VERTEX
  8
05
  5
CD5A4
 10
111.433
 20
227.073
 30
0.000000
  70
    32
  0
VERTEX
  8
05
  5
CD5A5
 10
111.463
 20
227.062
 30
0.000000
  70
    32
  0
VERTEX
  8
05
  5
CD5A6
 10
111.495
 20
227.050
 30
0.000000
  70
    32
  0
VERTEX
  8
05
  5
CD5A7
 10
111.528
 20
227.039
 30
0.000000
  70
    32
  0
VERTEX
  8
05
  5
CD5A8
 10
111.562
 20
227.028
 30
0.000000
  70
    32
  0
VERTEX
  8
05
  5
CD5A9
 10
111.598
 20
227.018
 30
0.000000
  70
    32
  0
VERTEX
  8
05
  5
CD5AA
 10
111.635
 20
227.007
 30
0.000000
  70
    32
  0
VERTEX
  8
05
  5
CD5AB
 10
111.672
 20
226.997
 30
0.000000
  70
    32
  0
VERTEX
  8
05
  5
CD5AC
 10
111.712
 20
226.987
 30
0.000000
  70
    32
  0
VERTEX
  8
05
  5
CD5AD
 10
111.752
 20
226.977
 30
0.000000
  70
    32
  0
VERTEX
  8
05
  5
CD5AE
 10
111.793
 20
226.967
 30
0.000000
  70
    32
  0
VERTEX
  8
05
  5
CD5AF
 10
111.835
 20
226.958
 30
0.000000
  70
    32
  0
VERTEX
  8
05
  5
CD5B0
 10
111.879
 20
226.949
 30
0.000000
  70
    32
  0
VERTEX
  8
05
  5
CD5B1
 10
111.923
 20
226.940
 30
0.000000
  70
    32
  0
VERTEX
  8
05
  5
CD5B2
 10
111.969
 20
226.931
 30
0.000000
  70
    32
  0
VERTEX
  8
05
  5
CD5B3
 10
112.015
 20
226.922
 30
0.000000
  70
    32
  0
VERTEX
  8
05
  5
CD5B4
 10
112.062
 20
226.914
 30
0.000000
  70
    32
  0
VERTEX
  8
05
  5
CD5B5
 10
112.111
 20
226.906
 30
0.000000
  70
    32
  0
VERTEX
  8
05
  5
CD5B6
 10
112.160
 20
226.898
 30
0.000000
  70
    32
  0
VERTEX
  8
05
  5
CD5B7
 10
112.210
 20
226.891
 30
0.000000
  70
    32
  0
VERTEX
  8
05
  5
CD5B8
 10
112.261
 20
226.884
 30
0.000000
  70
    32
  0
VERTEX
  8
05
  5
CD5B9
 10
112.312
 20
226.877
 30
0.000000
  70
    32
  0
VERTEX
  8
05
  5
CD5BA
 10
112.365
 20
226.870
 30
0.000000
  70
    32
  0
VERTEX
  8
05
  5
CD5BB
 10
112.418
 20
226.864
 30
0.000000
  70
    32
  0
VERTEX
  8
05
  5
CD5BC
 10
112.472
 20
226.858
 30
0.000000
  70
    32
  0
VERTEX
  8
05
  5
CD5BD
 10
112.526
 20
226.852
 30
0.000000
  70
    32
  0
VERTEX
  8
05
  5
CD5BE
 10
112.581
 20
226.846
 30
0.000000
  70
    32
  0
VERTEX
  8
05
  5
CD5BF
 10
112.637
 20
226.841
 30
0.000000
  70
    32
  0
VERTEX
  8
05
  5
CD5C0
 10
112.693
 20
226.836
 30
0.000000
  70
    32
  0
VERTEX
  8
05
  5
CD5C1
 10
112.750
 20
226.832
 30
0.000000
  70
    32
  0
VERTEX
  8
05
  5
CD5C2
 10
112.808
 20
226.827
 30
0.000000
  70
    32
  0
VERTEX
  8
05
  5
CD5C3
 10
112.865
 20
226.823
 30
0.000000
  70
    32
  0
VERTEX
  8
05
  5
CD5C4
 10
112.924
 20
226.820
 30
0.000000
  70
    32
  0
VERTEX
  8
05
  5
CD5C5
 10
112.982
 20
226.816
 30
0.000000
  70
    32
  0
VERTEX
  8
05
  5
CD5C6
 10
113.041
 20
226.813
 30
0.000000
  70
    32
  0
VERTEX
  8
05
  5
CD5C7
 10
113.101
 20
226.810
 30
0.000000
  70
    32
  0
VERTEX
  8
05
  5
CD5C8
 10
113.160
 20
226.808
 30
0.000000
  70
    32
  0
VERTEX
  8
05
  5
CD5C9
 10
113.220
 20
226.806
 30
0.000000
  70
    32
  0
VERTEX
  8
05
  5
CD5CA
 10
113.280
 20
226.804
 30
0.000000
  70
    32
  0
VERTEX
  8
05
  5
CD5CB
 10
113.341
 20
226.803
 30
0.000000
  70
    32
  0
VERTEX
  8
05
  5
CD5CC
 10
113.401
 20
226.802
 30
0.000000
  70
    32
  0
VERTEX
  8
05
  5
CD5CD
 10
113.462
 20
226.801
 30
0.000000
  70
    32
  0
VERTEX
  8
05
  5
CD5CE
 10
113.522
 20
226.800
 30
0.000000
  70
    32
  0
VERTEX
  8
05
  5
CD5CF
 10
113.583
 20
226.800
 30
0.000000
  70
    32
  0
VERTEX
  8
05
  5
CD5D0
 10
113.644
 20
226.800
 30
0.000000
  70
    32
  0
VERTEX
  8
05
  5
CD5D1
 10
113.704
 20
226.801
 30
0.000000
  70
    32
  0
VERTEX
  8
05
  5
CD5D2
 10
113.765
 20
226.802
 30
0.000000
  70
    32
  0
VERTEX
  8
05
  5
CD5D3
 10
113.825
 20
226.803
 30
0.000000
  70
    32
  0
VERTEX
  8
05
  5
CD5D4
 10
113.885
 20
226.804
 30
0.000000
  70
    32
  0
VERTEX
  8
05
  5
CD5D5
 10
113.946
 20
226.806
 30
0.000000
  70
    32
  0
VERTEX
  8
05
  5
CD5D6
 10
114.005
 20
226.808
 30
0.000000
  70
    32
  0
VERTEX
  8
05
  5
CD5D7
 10
114.065
 20
226.810
 30
0.000000
  70
    32
  0
VERTEX
  8
05
  5
CD5D8
 10
114.124
 20
226.813
 30
0.000000
  70
    32
  0
VERTEX
  8
05
  5
CD5D9
 10
114.183
 20
226.816
 30
0.000000
  70
    32
  0
VERTEX
  8
05
  5
CD5DA
 10
114.242
 20
226.820
 30
0.000000
  70
    32
  0
VERTEX
  8
05
  5
CD5DB
 10
114.300
 20
226.823
 30
0.000000
  70
    32
  0
VERTEX
  8
05
  5
CD5DC
 10
114.358
 20
226.827
 30
0.000000
  70
    32
  0
VERTEX
  8
05
  5
CD5DD
 10
114.416
 20
226.832
 30
0.000000
  70
    32
  0
VERTEX
  8
05
  5
CD5DE
 10
114.472
 20
226.836
 30
0.000000
  70
    32
  0
VERTEX
  8
05
  5
CD5DF
 10
114.529
 20
226.841
 30
0.000000
  70
    32
  0
VERTEX
  8
05
  5
CD5E0
 10
114.584
 20
226.846
 30
0.000000
  70
    32
  0
VERTEX
  8
05
  5
CD5E1
 10
114.640
 20
226.852
 30
0.000000
  70
    32
  0
VERTEX
  8
05
  5
CD5E2
 10
114.694
 20
226.858
 30
0.000000
  70
    32
  0
VERTEX
  8
05
  5
CD5E3
 10
114.748
 20
226.864
 30
0.000000
  70
    32
  0
VERTEX
  8
05
  5
CD5E4
 10
114.801
 20
226.870
 30
0.000000
  70
    32
  0
VERTEX
  8
05
  5
CD5E5
 10
114.854
 20
226.877
 30
0.000000
  70
    32
  0
VERTEX
  8
05
  5
CD5E6
 10
114.905
 20
226.884
 30
0.000000
  70
    32
  0
VERTEX
  8
05
  5
CD5E7
 10
114.956
 20
226.891
 30
0.000000
  70
    32
  0
VERTEX
  8
05
  5
CD5E8
 10
115.006
 20
226.898
 30
0.000000
  70
    32
  0
VERTEX
  8
05
  5
CD5E9
 10
115.055
 20
226.906
 30
0.000000
  70
    32
  0
VERTEX
  8
05
  5
CD5EA
 10
115.103
 20
226.914
 30
0.000000
  70
    32
  0
VERTEX
  8
05
  5
CD5EB
 10
115.151
 20
226.922
 30
0.000000
  70
    32
  0
VERTEX
  8
05
  5
CD5EC
 10
115.197
 20
226.931
 30
0.000000
  70
    32
  0
VERTEX
  8
05
  5
CD5ED
 10
115.243
 20
226.940
 30
0.000000
  70
    32
  0
VERTEX
  8
05
  5
CD5EE
 10
115.287
 20
226.949
 30
0.000000
  70
    32
  0
VERTEX
  8
05
  5
CD5EF
 10
115.331
 20
226.958
 30
0.000000
  70
    32
  0
VERTEX
  8
05
  5
CD5F0
 10
115.373
 20
226.967
 30
0.000000
  70
    32
  0
VERTEX
  8
05
  5
CD5F1
 10
115.414
 20
226.977
 30
0.000000
  70
    32
  0
VERTEX
  8
05
  5
CD5F2
 10
115.454
 20
226.987
 30
0.000000
  70
    32
  0
VERTEX
  8
05
  5
CD5F3
 10
115.493
 20
226.997
 30
0.000000
  70
    32
  0
VERTEX
  8
05
  5
CD5F4
 10
115.531
 20
227.007
 30
0.000000
  70
    32
  0
VERTEX
  8
05
  5
CD5F5
 10
115.568
 20
227.018
 30
0.000000
  70
    32
  0
VERTEX
  8
05
  5
CD5F6
 10
115.604
 20
227.028
 30
0.000000
  70
    32
  0
VERTEX
  8
05
  5
CD5F7
 10
115.638
 20
227.039
 30
0.000000
  70
    32
  0
VERTEX
  8
05
  5
CD5F8
 10
115.671
 20
227.050
 30
0.000000
  70
    32
  0
VERTEX
  8
05
  5
CD5F9
 10
115.703
 20
227.062
 30
0.000000
  70
    32
  0
VERTEX
  8
05
  5
CD5FA
 10
115.733
 20
227.073
 30
0.000000
  70
    32
  0
VERTEX
  8
05
  5
CD5FB
 10
115.763
 20
227.085
 30
0.000000
  70
    32
  0
VERTEX
  8
05
  5
CD5FC
 10
115.790
 20
227.096
 30
0.000000
  70
    32
  0
VERTEX
  8
05
  5
CD5FD
 10
115.817
 20
227.108
 30
0.000000
  70
    32
  0
VERTEX
  8
05
  5
CD5FE
 10
115.842
 20
227.120
 30
0.000000
  70
    32
  0
VERTEX
  8
05
  5
CD5FF
 10
115.866
 20
227.132
 30
0.000000
  70
    32
  0
VERTEX
  8
05
  5
CD600
 10
115.889
 20
227.145
 30
0.000000
  70
    32
  0
VERTEX
  8
05
  5
CD601
 10
115.910
 20
227.157
 30
0.000000
  70
    32
  0
VERTEX
  8
05
  5
CD602
 10
115.930
 20
227.170
 30
0.000000
  70
    32
  0
VERTEX
  8
05
  5
CD603
 10
115.948
 20
227.182
 30
0.000000
  70
    32
  0
VERTEX
  8
05
  5
CD604
 10
115.965
 20
227.195
 30
0.000000
  70
    32
  0
VERTEX
  8
05
  5
CD605
 10
115.980
 20
227.208
 30
0.000000
  70
    32
  0
VERTEX
  8
05
  5
CD606
 10
115.994
 20
227.221
 30
0.000000
  70
    32
  0
VERTEX
  8
05
  5
CD607
 10
116.007
 20
227.233
 30
0.000000
  70
    32
  0
VERTEX
  8
05
  5
CD608
 10
116.018
 20
227.246
 30
0.000000
  70
    32
  0
VERTEX
  8
05
  5
CD609
 10
116.028
 20
227.259
 30
0.000000
  70
    32
  0
VERTEX
  8
05
  5
CD60A
 10
116.036
 20
227.273
 30
0.000000
  70
    32
  0
VERTEX
  8
05
  5
CD60B
 10
116.042
 20
227.286
 30
0.000000
  70
    32
  0
VERTEX
  8
05
  5
CD60C
 10
116.048
 20
227.299
 30
0.000000
  70
    32
  0
VERTEX
  8
05
  5
CD60D
 10
116.051
 20
227.312
 30
0.000000
  70
    32
  0
VERTEX
  8
05
  5
CD60E
 10
116.054
 20
227.325
 30
0.000000
  70
    32
  0
VERTEX
  8
05
  5
CD60F
 10
116.054
 20
227.338
 30
0.000000
  70
    32
  0
SEQEND
  8
05
  5
CD610
  0
LINE
  5
C9616
  8
05
 10
112.1941881280429
 20
226.66339386178481
 30
0.0
 11
123.0686298278906
 21
226.66339386178481
 31
0.0
  0
POLYLINE
  5
C9617
  8
025
 66
     1
 10
0.0
 20
0.0
 30
0.0
  0
VERTEX
  5
CD44C
  8
025
 10
112.6225545419242
 20
227.36639936304189
 30
0.0
 42
0.1957062860191981
  0
VERTEX
  5
CD44D
  8
025
 10
113.1662318772989
 20
228.471091589841
 30
0.0
  0
VERTEX
  5
CD44E
  8
025
 10
113.1662318772989
 20
228.54835480941929
 30
0.0
 42
0.1720024612105806
  0
VERTEX
  5
CD44F
  8
025
 10
112.61965490581559
 20
230.04780568893739
 30
0.0
  0
SEQEND
  5
CD450
  8
025
  0
POLYLINE
  5
C9618
  8
025
 66
     1
 10
0.0
 20
0.0
 30
0.0
  0
VERTEX
  5
CD451
  8
025
 10
114.7453659650607
 20
229.95408954257871
 30
0.0
 42
0.184217657103692
  0
VERTEX
  5
CD452
  8
025
 10
114.1951816547257
 20
228.79826360026479
 30
0.0
  0
VERTEX
  5
CD453
  8
025
 10
114.1951816547257
 20
228.471091589841
 30
0.0
 42
0.1918553960062915
  0
VERTEX
  5
CD454
  8
025
 10
114.72086331074431
 20
227.3826452779287
 30
0.0
  0
SEQEND
  5
CD455
  8
025
  0
POLYLINE
  5
C9619
  8
025
 66
     1
 10
0.0
 20
0.0
 30
0.0
  0
VERTEX
  5
CD456
  8
025
 10
120.72395512471761
 20
229.95408954257871
 30
0.0
 42
0.184217657103692
  0
VERTEX
  5
CD457
  8
025
 10
120.17377081438261
 20
228.79826360026479
 30
0.0
  0
VERTEX
  5
CD458
  8
025
 10
120.17377081438261
 20
228.471091589841
 30
0.0
 42
0.1918553960062915
  0
VERTEX
  5
CD459
  8
025
 10
120.6994524704012
 20
227.3826452779287
 30
0.0
  0
SEQEND
  5
CD45A
  8
025
  0
POLYLINE
  5
C961A
  8
025
 66
     1
 10
0.0
 20
0.0
 30
0.0
  0
VERTEX
  5
CD45B
  8
025
 10
118.60114370158109
 20
227.36639936304189
 30
0.0
 42
0.1957062860191981
  0
VERTEX
  5
CD45C
  8
025
 10
119.1448210369558
 20
228.471091589841
 30
0.0
  0
VERTEX
  5
CD45D
  8
025
 10
119.1448210369558
 20
228.54835480941929
 30
0.0
 42
0.1720024612105806
  0
VERTEX
  5
CD45E
  8
025
 10
118.5982440654725
 20
230.04780568893739
 30
0.0
  0
SEQEND
  5
CD45F
  8
025
  0
POLYLINE
  5
C961B
  8
025
 66
     1
 10
0.0
 20
0.0
 30
0.0
  0
VERTEX
  5
CD460
  8
025
 10
124.5797328612375
 20
227.48000136920541
 30
0.0
 42
0.1957062860191981
  0
VERTEX
  5
CD461
  8
025
 10
125.1234101966122
 20
228.58469359600451
 30
0.0
  0
VERTEX
  5
CD462
  8
025
 10
125.1234101966122
 20
228.66195681558281
 30
0.0
 42
0.1720024612105806
  0
VERTEX
  5
CD463
  8
025
 10
124.57683322512889
 20
230.16140769510091
 30
0.0
  0
SEQEND
  5
CD464
  8
025
  0
POLYLINE
  5
C961C
  8
025
 66
     1
 10
0.0
 20
0.0
 30
0.0
  0
VERTEX
  5
CD465
  8
025
 10
126.7025442843739
 20
230.0676915487422
 30
0.0
 42
0.184217657103692
  0
VERTEX
  5
CD466
  8
025
 10
126.1523599740389
 20
228.91186560642831
 30
0.0
  0
VERTEX
  5
CD467
  8
025
 10
126.1523599740389
 20
228.58469359600451
 30
0.0
 42
0.1918553960062915
  0
VERTEX
  5
CD468
  8
025
 10
126.67804163005761
 20
227.49624728409219
 30
0.0
  0
SEQEND
  5
CD469
  8
025
  0
POLYLINE
  5
C961D
  8
025
 10
117.09004066823393
 20
227.52258320194969
 30
0.0
 66
     1
 70
     8
  0
VERTEX
  8
025
  5
CD611
 10
117.090
 20
227.523
 30
0.000000
  70
    32
  0
VERTEX
  8
025
  5
CD612
 10
117.091
 20
227.509
 30
0.000000
  70
    32
  0
VERTEX
  8
025
  5
CD613
 10
117.093
 20
227.496
 30
0.000000
  70
    32
  0
VERTEX
  8
025
  5
CD614
 10
117.097
 20
227.483
 30
0.000000
  70
    32
  0
VERTEX
  8
025
  5
CD615
 10
117.102
 20
227.470
 30
0.000000
  70
    32
  0
VERTEX
  8
025
  5
CD616
 10
117.109
 20
227.457
 30
0.000000
  70
    32
  0
VERTEX
  8
025
  5
CD617
 10
117.117
 20
227.444
 30
0.000000
  70
    32
  0
VERTEX
  8
025
  5
CD618
 10
117.126
 20
227.431
 30
0.000000
  70
    32
  0
VERTEX
  8
025
  5
CD619
 10
117.138
 20
227.418
 30
0.000000
  70
    32
  0
VERTEX
  8
025
  5
CD61A
 10
117.150
 20
227.405
 30
0.000000
  70
    32
  0
VERTEX
  8
025
  5
CD61B
 10
117.164
 20
227.392
 30
0.000000
  70
    32
  0
VERTEX
  8
025
  5
CD61C
 10
117.180
 20
227.379
 30
0.000000
  70
    32
  0
VERTEX
  8
025
  5
CD61D
 10
117.196
 20
227.366
 30
0.000000
  70
    32
  0
VERTEX
  8
025
  5
CD61E
 10
117.215
 20
227.354
 30
0.000000
  70
    32
  0
VERTEX
  8
025
  5
CD61F
 10
117.235
 20
227.341
 30
0.000000
  70
    32
  0
VERTEX
  8
025
  5
CD620
 10
117.256
 20
227.329
 30
0.000000
  70
    32
  0
VERTEX
  8
025
  5
CD621
 10
117.278
 20
227.317
 30
0.000000
  70
    32
  0
VERTEX
  8
025
  5
CD622
 10
117.302
 20
227.304
 30
0.000000
  70
    32
  0
VERTEX
  8
025
  5
CD623
 10
117.327
 20
227.292
 30
0.000000
  70
    32
  0
VERTEX
  8
025
  5
CD624
 10
117.354
 20
227.281
 30
0.000000
  70
    32
  0
VERTEX
  8
025
  5
CD625
 10
117.382
 20
227.269
 30
0.000000
  70
    32
  0
VERTEX
  8
025
  5
CD626
 10
117.411
 20
227.257
 30
0.000000
  70
    32
  0
VERTEX
  8
025
  5
CD627
 10
117.442
 20
227.246
 30
0.000000
  70
    32
  0
VERTEX
  8
025
  5
CD628
 10
117.473
 20
227.235
 30
0.000000
  70
    32
  0
VERTEX
  8
025
  5
CD629
 10
117.507
 20
227.224
 30
0.000000
  70
    32
  0
VERTEX
  8
025
  5
CD62A
 10
117.541
 20
227.213
 30
0.000000
  70
    32
  0
VERTEX
  8
025
  5
CD62B
 10
117.576
 20
227.202
 30
0.000000
  70
    32
  0
VERTEX
  8
025
  5
CD62C
 10
117.613
 20
227.191
 30
0.000000
  70
    32
  0
VERTEX
  8
025
  5
CD62D
 10
117.651
 20
227.181
 30
0.000000
  70
    32
  0
VERTEX
  8
025
  5
CD62E
 10
117.690
 20
227.171
 30
0.000000
  70
    32
  0
VERTEX
  8
025
  5
CD62F
 10
117.730
 20
227.161
 30
0.000000
  70
    32
  0
VERTEX
  8
025
  5
CD630
 10
117.772
 20
227.151
 30
0.000000
  70
    32
  0
VERTEX
  8
025
  5
CD631
 10
117.814
 20
227.142
 30
0.000000
  70
    32
  0
VERTEX
  8
025
  5
CD632
 10
117.857
 20
227.133
 30
0.000000
  70
    32
  0
VERTEX
  8
025
  5
CD633
 10
117.902
 20
227.124
 30
0.000000
  70
    32
  0
VERTEX
  8
025
  5
CD634
 10
117.947
 20
227.115
 30
0.000000
  70
    32
  0
VERTEX
  8
025
  5
CD635
 10
117.994
 20
227.106
 30
0.000000
  70
    32
  0
VERTEX
  8
025
  5
CD636
 10
118.041
 20
227.098
 30
0.000000
  70
    32
  0
VERTEX
  8
025
  5
CD637
 10
118.089
 20
227.090
 30
0.000000
  70
    32
  0
VERTEX
  8
025
  5
CD638
 10
118.138
 20
227.082
 30
0.000000
  70
    32
  0
VERTEX
  8
025
  5
CD639
 10
118.188
 20
227.075
 30
0.000000
  70
    32
  0
VERTEX
  8
025
  5
CD63A
 10
118.239
 20
227.068
 30
0.000000
  70
    32
  0
VERTEX
  8
025
  5
CD63B
 10
118.291
 20
227.061
 30
0.000000
  70
    32
  0
VERTEX
  8
025
  5
CD63C
 10
118.343
 20
227.054
 30
0.000000
  70
    32
  0
VERTEX
  8
025
  5
CD63D
 10
118.396
 20
227.048
 30
0.000000
  70
    32
  0
VERTEX
  8
025
  5
CD63E
 10
118.450
 20
227.042
 30
0.000000
  70
    32
  0
VERTEX
  8
025
  5
CD63F
 10
118.505
 20
227.036
 30
0.000000
  70
    32
  0
VERTEX
  8
025
  5
CD640
 10
118.560
 20
227.030
 30
0.000000
  70
    32
  0
VERTEX
  8
025
  5
CD641
 10
118.616
 20
227.025
 30
0.000000
  70
    32
  0
VERTEX
  8
025
  5
CD642
 10
118.672
 20
227.020
 30
0.000000
  70
    32
  0
VERTEX
  8
025
  5
CD643
 10
118.729
 20
227.016
 30
0.000000
  70
    32
  0
VERTEX
  8
025
  5
CD644
 10
118.786
 20
227.011
 30
0.000000
  70
    32
  0
VERTEX
  8
025
  5
CD645
 10
118.844
 20
227.007
 30
0.000000
  70
    32
  0
VERTEX
  8
025
  5
CD646
 10
118.902
 20
227.004
 30
0.000000
  70
    32
  0
VERTEX
  8
025
  5
CD647
 10
118.961
 20
227.000
 30
0.000000
  70
    32
  0
VERTEX
  8
025
  5
CD648
 10
119.020
 20
226.997
 30
0.000000
  70
    32
  0
VERTEX
  8
025
  5
CD649
 10
119.079
 20
226.995
 30
0.000000
  70
    32
  0
VERTEX
  8
025
  5
CD64A
 10
119.139
 20
226.992
 30
0.000000
  70
    32
  0
VERTEX
  8
025
  5
CD64B
 10
119.199
 20
226.990
 30
0.000000
  70
    32
  0
VERTEX
  8
025
  5
CD64C
 10
119.259
 20
226.988
 30
0.000000
  70
    32
  0
VERTEX
  8
025
  5
CD64D
 10
119.319
 20
226.987
 30
0.000000
  70
    32
  0
VERTEX
  8
025
  5
CD64E
 10
119.380
 20
226.986
 30
0.000000
  70
    32
  0
VERTEX
  8
025
  5
CD64F
 10
119.440
 20
226.985
 30
0.000000
  70
    32
  0
VERTEX
  8
025
  5
CD650
 10
119.501
 20
226.984
 30
0.000000
  70
    32
  0
VERTEX
  8
025
  5
CD651
 10
119.562
 20
226.984
 30
0.000000
  70
    32
  0
VERTEX
  8
025
  5
CD652
 10
119.622
 20
226.984
 30
0.000000
  70
    32
  0
VERTEX
  8
025
  5
CD653
 10
119.683
 20
226.985
 30
0.000000
  70
    32
  0
VERTEX
  8
025
  5
CD654
 10
119.743
 20
226.986
 30
0.000000
  70
    32
  0
VERTEX
  8
025
  5
CD655
 10
119.804
 20
226.987
 30
0.000000
  70
    32
  0
VERTEX
  8
025
  5
CD656
 10
119.864
 20
226.988
 30
0.000000
  70
    32
  0
VERTEX
  8
025
  5
CD657
 10
119.924
 20
226.990
 30
0.000000
  70
    32
  0
VERTEX
  8
025
  5
CD658
 10
119.984
 20
226.992
 30
0.000000
  70
    32
  0
VERTEX
  8
025
  5
CD659
 10
120.044
 20
226.995
 30
0.000000
  70
    32
  0
VERTEX
  8
025
  5
CD65A
 10
120.103
 20
226.997
 30
0.000000
  70
    32
  0
VERTEX
  8
025
  5
CD65B
 10
120.162
 20
227.000
 30
0.000000
  70
    32
  0
VERTEX
  8
025
  5
CD65C
 10
120.221
 20
227.004
 30
0.000000
  70
    32
  0
VERTEX
  8
025
  5
CD65D
 10
120.279
 20
227.007
 30
0.000000
  70
    32
  0
VERTEX
  8
025
  5
CD65E
 10
120.337
 20
227.011
 30
0.000000
  70
    32
  0
VERTEX
  8
025
  5
CD65F
 10
120.394
 20
227.016
 30
0.000000
  70
    32
  0
VERTEX
  8
025
  5
CD660
 10
120.451
 20
227.020
 30
0.000000
  70
    32
  0
VERTEX
  8
025
  5
CD661
 10
120.507
 20
227.025
 30
0.000000
  70
    32
  0
VERTEX
  8
025
  5
CD662
 10
120.563
 20
227.030
 30
0.000000
  70
    32
  0
VERTEX
  8
025
  5
CD663
 10
120.618
 20
227.036
 30
0.000000
  70
    32
  0
VERTEX
  8
025
  5
CD664
 10
120.673
 20
227.042
 30
0.000000
  70
    32
  0
VERTEX
  8
025
  5
CD665
 10
120.727
 20
227.048
 30
0.000000
  70
    32
  0
VERTEX
  8
025
  5
CD666
 10
120.780
 20
227.054
 30
0.000000
  70
    32
  0
VERTEX
  8
025
  5
CD667
 10
120.832
 20
227.061
 30
0.000000
  70
    32
  0
VERTEX
  8
025
  5
CD668
 10
120.884
 20
227.068
 30
0.000000
  70
    32
  0
VERTEX
  8
025
  5
CD669
 10
120.935
 20
227.075
 30
0.000000
  70
    32
  0
VERTEX
  8
025
  5
CD66A
 10
120.985
 20
227.082
 30
0.000000
  70
    32
  0
VERTEX
  8
025
  5
CD66B
 10
121.034
 20
227.090
 30
0.000000
  70
    32
  0
VERTEX
  8
025
  5
CD66C
 10
121.082
 20
227.098
 30
0.000000
  70
    32
  0
VERTEX
  8
025
  5
CD66D
 10
121.129
 20
227.106
 30
0.000000
  70
    32
  0
VERTEX
  8
025
  5
CD66E
 10
121.176
 20
227.115
 30
0.000000
  70
    32
  0
VERTEX
  8
025
  5
CD66F
 10
121.221
 20
227.124
 30
0.000000
  70
    32
  0
VERTEX
  8
025
  5
CD670
 10
121.266
 20
227.133
 30
0.000000
  70
    32
  0
VERTEX
  8
025
  5
CD671
 10
121.309
 20
227.142
 30
0.000000
  70
    32
  0
VERTEX
  8
025
  5
CD672
 10
121.351
 20
227.151
 30
0.000000
  70
    32
  0
VERTEX
  8
025
  5
CD673
 10
121.393
 20
227.161
 30
0.000000
  70
    32
  0
VERTEX
  8
025
  5
CD674
 10
121.433
 20
227.171
 30
0.000000
  70
    32
  0
VERTEX
  8
025
  5
CD675
 10
121.472
 20
227.181
 30
0.000000
  70
    32
  0
VERTEX
  8
025
  5
CD676
 10
121.510
 20
227.191
 30
0.000000
  70
    32
  0
VERTEX
  8
025
  5
CD677
 10
121.547
 20
227.202
 30
0.000000
  70
    32
  0
VERTEX
  8
025
  5
CD678
 10
121.582
 20
227.213
 30
0.000000
  70
    32
  0
VERTEX
  8
025
  5
CD679
 10
121.616
 20
227.224
 30
0.000000
  70
    32
  0
VERTEX
  8
025
  5
CD67A
 10
121.650
 20
227.235
 30
0.000000
  70
    32
  0
VERTEX
  8
025
  5
CD67B
 10
121.681
 20
227.246
 30
0.000000
  70
    32
  0
VERTEX
  8
025
  5
CD67C
 10
121.712
 20
227.257
 30
0.000000
  70
    32
  0
VERTEX
  8
025
  5
CD67D
 10
121.741
 20
227.269
 30
0.000000
  70
    32
  0
VERTEX
  8
025
  5
CD67E
 10
121.769
 20
227.281
 30
0.000000
  70
    32
  0
VERTEX
  8
025
  5
CD67F
 10
121.796
 20
227.292
 30
0.000000
  70
    32
  0
VERTEX
  8
025
  5
CD680
 10
121.821
 20
227.304
 30
0.000000
  70
    32
  0
VERTEX
  8
025
  5
CD681
 10
121.845
 20
227.317
 30
0.000000
  70
    32
  0
VERTEX
  8
025
  5
CD682
 10
121.867
 20
227.329
 30
0.000000
  70
    32
  0
VERTEX
  8
025
  5
CD683
 10
121.888
 20
227.341
 30
0.000000
  70
    32
  0
VERTEX
  8
025
  5
CD684
 10
121.908
 20
227.354
 30
0.000000
  70
    32
  0
VERTEX
  8
025
  5
CD685
 10
121.927
 20
227.366
 30
0.000000
  70
    32
  0
VERTEX
  8
025
  5
CD686
 10
121.943
 20
227.379
 30
0.000000
  70
    32
  0
VERTEX
  8
025
  5
CD687
 10
121.959
 20
227.392
 30
0.000000
  70
    32
  0
VERTEX
  8
025
  5
CD688
 10
121.973
 20
227.405
 30
0.000000
  70
    32
  0
VERTEX
  8
025
  5
CD689
 10
121.985
 20
227.418
 30
0.000000
  70
    32
  0
VERTEX
  8
025
  5
CD68A
 10
121.997
 20
227.431
 30
0.000000
  70
    32
  0
VERTEX
  8
025
  5
CD68B
 10
122.006
 20
227.444
 30
0.000000
  70
    32
  0
VERTEX
  8
025
  5
CD68C
 10
122.014
 20
227.457
 30
0.000000
  70
    32
  0
VERTEX
  8
025
  5
CD68D
 10
122.021
 20
227.470
 30
0.000000
  70
    32
  0
VERTEX
  8
025
  5
CD68E
 10
122.026
 20
227.483
 30
0.000000
  70
    32
  0
VERTEX
  8
025
  5
CD68F
 10
122.030
 20
227.496
 30
0.000000
  70
    32
  0
VERTEX
  8
025
  5
CD690
 10
122.032
 20
227.509
 30
0.000000
  70
    32
  0
VERTEX
  8
025
  5
CD691
 10
122.033
 20
227.523
 30
0.000000
  70
    32
  0
SEQEND
  8
025
  5
CD692
  0
POLYLINE
  5
C961E
  8
05
 10
117.09004066823393
 20
227.33845262663971
 30
0.0
 66
     1
 70
     8
  0
VERTEX
  8
05
  5
CD693
 10
117.090
 20
227.338
 30
0.000000
  70
    32
  0
VERTEX
  8
05
  5
CD694
 10
117.091
 20
227.325
 30
0.000000
  70
    32
  0
VERTEX
  8
05
  5
CD695
 10
117.093
 20
227.312
 30
0.000000
  70
    32
  0
VERTEX
  8
05
  5
CD696
 10
117.097
 20
227.299
 30
0.000000
  70
    32
  0
VERTEX
  8
05
  5
CD697
 10
117.102
 20
227.286
 30
0.000000
  70
    32
  0
VERTEX
  8
05
  5
CD698
 10
117.109
 20
227.273
 30
0.000000
  70
    32
  0
VERTEX
  8
05
  5
CD699
 10
117.117
 20
227.259
 30
0.000000
  70
    32
  0
VERTEX
  8
05
  5
CD69A
 10
117.126
 20
227.246
 30
0.000000
  70
    32
  0
VERTEX
  8
05
  5
CD69B
 10
117.138
 20
227.233
 30
0.000000
  70
    32
  0
VERTEX
  8
05
  5
CD69C
 10
117.150
 20
227.221
 30
0.000000
  70
    32
  0
VERTEX
  8
05
  5
CD69D
 10
117.164
 20
227.208
 30
0.000000
  70
    32
  0
VERTEX
  8
05
  5
CD69E
 10
117.180
 20
227.195
 30
0.000000
  70
    32
  0
VERTEX
  8
05
  5
CD69F
 10
117.196
 20
227.182
 30
0.000000
  70
    32
  0
VERTEX
  8
05
  5
CD6A0
 10
117.215
 20
227.170
 30
0.000000
  70
    32
  0
VERTEX
  8
05
  5
CD6A1
 10
117.235
 20
227.157
 30
0.000000
  70
    32
  0
VERTEX
  8
05
  5
CD6A2
 10
117.256
 20
227.145
 30
0.000000
  70
    32
  0
VERTEX
  8
05
  5
CD6A3
 10
117.278
 20
227.132
 30
0.000000
  70
    32
  0
VERTEX
  8
05
  5
CD6A4
 10
117.302
 20
227.120
 30
0.000000
  70
    32
  0
VERTEX
  8
05
  5
CD6A5
 10
117.327
 20
227.108
 30
0.000000
  70
    32
  0
VERTEX
  8
05
  5
CD6A6
 10
117.354
 20
227.096
 30
0.000000
  70
    32
  0
VERTEX
  8
05
  5
CD6A7
 10
117.382
 20
227.085
 30
0.000000
  70
    32
  0
VERTEX
  8
05
  5
CD6A8
 10
117.411
 20
227.073
 30
0.000000
  70
    32
  0
VERTEX
  8
05
  5
CD6A9
 10
117.442
 20
227.062
 30
0.000000
  70
    32
  0
VERTEX
  8
05
  5
CD6AA
 10
117.473
 20
227.050
 30
0.000000
  70
    32
  0
VERTEX
  8
05
  5
CD6AB
 10
117.507
 20
227.039
 30
0.000000
  70
    32
  0
VERTEX
  8
05
  5
CD6AC
 10
117.541
 20
227.028
 30
0.000000
  70
    32
  0
VERTEX
  8
05
  5
CD6AD
 10
117.576
 20
227.018
 30
0.000000
  70
    32
  0
VERTEX
  8
05
  5
CD6AE
 10
117.613
 20
227.007
 30
0.000000
  70
    32
  0
VERTEX
  8
05
  5
CD6AF
 10
117.651
 20
226.997
 30
0.000000
  70
    32
  0
VERTEX
  8
05
  5
CD6B0
 10
117.690
 20
226.987
 30
0.000000
  70
    32
  0
VERTEX
  8
05
  5
CD6B1
 10
117.730
 20
226.977
 30
0.000000
  70
    32
  0
VERTEX
  8
05
  5
CD6B2
 10
117.772
 20
226.967
 30
0.000000
  70
    32
  0
VERTEX
  8
05
  5
CD6B3
 10
117.814
 20
226.958
 30
0.000000
  70
    32
  0
VERTEX
  8
05
  5
CD6B4
 10
117.857
 20
226.949
 30
0.000000
  70
    32
  0
VERTEX
  8
05
  5
CD6B5
 10
117.902
 20
226.940
 30
0.000000
  70
    32
  0
VERTEX
  8
05
  5
CD6B6
 10
117.947
 20
226.931
 30
0.000000
  70
    32
  0
VERTEX
  8
05
  5
CD6B7
 10
117.994
 20
226.922
 30
0.000000
  70
    32
  0
VERTEX
  8
05
  5
CD6B8
 10
118.041
 20
226.914
 30
0.000000
  70
    32
  0
VERTEX
  8
05
  5
CD6B9
 10
118.089
 20
226.906
 30
0.000000
  70
    32
  0
VERTEX
  8
05
  5
CD6BA
 10
118.138
 20
226.898
 30
0.000000
  70
    32
  0
VERTEX
  8
05
  5
CD6BB
 10
118.188
 20
226.891
 30
0.000000
  70
    32
  0
VERTEX
  8
05
  5
CD6BC
 10
118.239
 20
226.884
 30
0.000000
  70
    32
  0
VERTEX
  8
05
  5
CD6BD
 10
118.291
 20
226.877
 30
0.000000
  70
    32
  0
VERTEX
  8
05
  5
CD6BE
 10
118.343
 20
226.870
 30
0.000000
  70
    32
  0
VERTEX
  8
05
  5
CD6BF
 10
118.396
 20
226.864
 30
0.000000
  70
    32
  0
VERTEX
  8
05
  5
CD6C0
 10
118.450
 20
226.858
 30
0.000000
  70
    32
  0
VERTEX
  8
05
  5
CD6C1
 10
118.505
 20
226.852
 30
0.000000
  70
    32
  0
VERTEX
  8
05
  5
CD6C2
 10
118.560
 20
226.846
 30
0.000000
  70
    32
  0
VERTEX
  8
05
  5
CD6C3
 10
118.616
 20
226.841
 30
0.000000
  70
    32
  0
VERTEX
  8
05
  5
CD6C4
 10
118.672
 20
226.836
 30
0.000000
  70
    32
  0
VERTEX
  8
05
  5
CD6C5
 10
118.729
 20
226.832
 30
0.000000
  70
    32
  0
VERTEX
  8
05
  5
CD6C6
 10
118.786
 20
226.827
 30
0.000000
  70
    32
  0
VERTEX
  8
05
  5
CD6C7
 10
118.844
 20
226.823
 30
0.000000
  70
    32
  0
VERTEX
  8
05
  5
CD6C8
 10
118.902
 20
226.820
 30
0.000000
  70
    32
  0
VERTEX
  8
05
  5
CD6C9
 10
118.961
 20
226.816
 30
0.000000
  70
    32
  0
VERTEX
  8
05
  5
CD6CA
 10
119.020
 20
226.813
 30
0.000000
  70
    32
  0
VERTEX
  8
05
  5
CD6CB
 10
119.079
 20
226.810
 30
0.000000
  70
    32
  0
VERTEX
  8
05
  5
CD6CC
 10
119.139
 20
226.808
 30
0.000000
  70
    32
  0
VERTEX
  8
05
  5
CD6CD
 10
119.199
 20
226.806
 30
0.000000
  70
    32
  0
VERTEX
  8
05
  5
CD6CE
 10
119.259
 20
226.804
 30
0.000000
  70
    32
  0
VERTEX
  8
05
  5
CD6CF
 10
119.319
 20
226.803
 30
0.000000
  70
    32
  0
VERTEX
  8
05
  5
CD6D0
 10
119.380
 20
226.802
 30
0.000000
  70
    32
  0
VERTEX
  8
05
  5
CD6D1
 10
119.440
 20
226.801
 30
0.000000
  70
    32
  0
VERTEX
  8
05
  5
CD6D2
 10
119.501
 20
226.800
 30
0.000000
  70
    32
  0
VERTEX
  8
05
  5
CD6D3
 10
119.562
 20
226.800
 30
0.000000
  70
    32
  0
VERTEX
  8
05
  5
CD6D4
 10
119.622
 20
226.800
 30
0.000000
  70
    32
  0
VERTEX
  8
05
  5
CD6D5
 10
119.683
 20
226.801
 30
0.000000
  70
    32
  0
VERTEX
  8
05
  5
CD6D6
 10
119.743
 20
226.802
 30
0.000000
  70
    32
  0
VERTEX
  8
05
  5
CD6D7
 10
119.804
 20
226.803
 30
0.000000
  70
    32
  0
VERTEX
  8
05
  5
CD6D8
 10
119.864
 20
226.804
 30
0.000000
  70
    32
  0
VERTEX
  8
05
  5
CD6D9
 10
119.924
 20
226.806
 30
0.000000
  70
    32
  0
VERTEX
  8
05
  5
CD6DA
 10
119.984
 20
226.808
 30
0.000000
  70
    32
  0
VERTEX
  8
05
  5
CD6DB
 10
120.044
 20
226.810
 30
0.000000
  70
    32
  0
VERTEX
  8
05
  5
CD6DC
 10
120.103
 20
226.813
 30
0.000000
  70
    32
  0
VERTEX
  8
05
  5
CD6DD
 10
120.162
 20
226.816
 30
0.000000
  70
    32
  0
VERTEX
  8
05
  5
CD6DE
 10
120.221
 20
226.820
 30
0.000000
  70
    32
  0
VERTEX
  8
05
  5
CD6DF
 10
120.279
 20
226.823
 30
0.000000
  70
    32
  0
VERTEX
  8
05
  5
CD6E0
 10
120.337
 20
226.827
 30
0.000000
  70
    32
  0
VERTEX
  8
05
  5
CD6E1
 10
120.394
 20
226.832
 30
0.000000
  70
    32
  0
VERTEX
  8
05
  5
CD6E2
 10
120.451
 20
226.836
 30
0.000000
  70
    32
  0
VERTEX
  8
05
  5
CD6E3
 10
120.507
 20
226.841
 30
0.000000
  70
    32
  0
VERTEX
  8
05
  5
CD6E4
 10
120.563
 20
226.846
 30
0.000000
  70
    32
  0
VERTEX
  8
05
  5
CD6E5
 10
120.618
 20
226.852
 30
0.000000
  70
    32
  0
VERTEX
  8
05
  5
CD6E6
 10
120.673
 20
226.858
 30
0.000000
  70
    32
  0
VERTEX
  8
05
  5
CD6E7
 10
120.727
 20
226.864
 30
0.000000
  70
    32
  0
VERTEX
  8
05
  5
CD6E8
 10
120.780
 20
226.870
 30
0.000000
  70
    32
  0
VERTEX
  8
05
  5
CD6E9
 10
120.832
 20
226.877
 30
0.000000
  70
    32
  0
VERTEX
  8
05
  5
CD6EA
 10
120.884
 20
226.884
 30
0.000000
  70
    32
  0
VERTEX
  8
05
  5
CD6EB
 10
120.935
 20
226.891
 30
0.000000
  70
    32
  0
VERTEX
  8
05
  5
CD6EC
 10
120.985
 20
226.898
 30
0.000000
  70
    32
  0
VERTEX
  8
05
  5
CD6ED
 10
121.034
 20
226.906
 30
0.000000
  70
    32
  0
VERTEX
  8
05
  5
CD6EE
 10
121.082
 20
226.914
 30
0.000000
  70
    32
  0
VERTEX
  8
05
  5
CD6EF
 10
121.129
 20
226.922
 30
0.000000
  70
    32
  0
VERTEX
  8
05
  5
CD6F0
 10
121.176
 20
226.931
 30
0.000000
  70
    32
  0
VERTEX
  8
05
  5
CD6F1
 10
121.221
 20
226.940
 30
0.000000
  70
    32
  0
VERTEX
  8
05
  5
CD6F2
 10
121.266
 20
226.949
 30
0.000000
  70
    32
  0
VERTEX
  8
05
  5
CD6F3
 10
121.309
 20
226.958
 30
0.000000
  70
    32
  0
VERTEX
  8
05
  5
CD6F4
 10
121.351
 20
226.967
 30
0.000000
  70
    32
  0
VERTEX
  8
05
  5
CD6F5
 10
121.393
 20
226.977
 30
0.000000
  70
    32
  0
VERTEX
  8
05
  5
CD6F6
 10
121.433
 20
226.987
 30
0.000000
  70
    32
  0
VERTEX
  8
05
  5
CD6F7
 10
121.472
 20
226.997
 30
0.000000
  70
    32
  0
VERTEX
  8
05
  5
CD6F8
 10
121.510
 20
227.007
 30
0.000000
  70
    32
  0
VERTEX
  8
05
  5
CD6F9
 10
121.547
 20
227.018
 30
0.000000
  70
    32
  0
VERTEX
  8
05
  5
CD6FA
 10
121.582
 20
227.028
 30
0.000000
  70
    32
  0
VERTEX
  8
05
  5
CD6FB
 10
121.616
 20
227.039
 30
0.000000
  70
    32
  0
VERTEX
  8
05
  5
CD6FC
 10
121.650
 20
227.050
 30
0.000000
  70
    32
  0
VERTEX
  8
05
  5
CD6FD
 10
121.681
 20
227.062
 30
0.000000
  70
    32
  0
VERTEX
  8
05
  5
CD6FE
 10
121.712
 20
227.073
 30
0.000000
  70
    32
  0
VERTEX
  8
05
  5
CD6FF
 10
121.741
 20
227.085
 30
0.000000
  70
    32
  0
VERTEX
  8
05
  5
CD700
 10
121.769
 20
227.096
 30
0.000000
  70
    32
  0
VERTEX
  8
05
  5
CD701
 10
121.796
 20
227.108
 30
0.000000
  70
    32
  0
VERTEX
  8
05
  5
CD702
 10
121.821
 20
227.120
 30
0.000000
  70
    32
  0
VERTEX
  8
05
  5
CD703
 10
121.845
 20
227.132
 30
0.000000
  70
    32
  0
VERTEX
  8
05
  5
CD704
 10
121.867
 20
227.145
 30
0.000000
  70
    32
  0
VERTEX
  8
05
  5
CD705
 10
121.888
 20
227.157
 30
0.000000
  70
    32
  0
VERTEX
  8
05
  5
CD706
 10
121.908
 20
227.170
 30
0.000000
  70
    32
  0
VERTEX
  8
05
  5
CD707
 10
121.927
 20
227.182
 30
0.000000
  70
    32
  0
VERTEX
  8
05
  5
CD708
 10
121.943
 20
227.195
 30
0.000000
  70
    32
  0
VERTEX
  8
05
  5
CD709
 10
121.959
 20
227.208
 30
0.000000
  70
    32
  0
VERTEX
  8
05
  5
CD70A
 10
121.973
 20
227.221
 30
0.000000
  70
    32
  0
VERTEX
  8
05
  5
CD70B
 10
121.985
 20
227.233
 30
0.000000
  70
    32
  0
VERTEX
  8
05
  5
CD70C
 10
121.997
 20
227.246
 30
0.000000
  70
    32
  0
VERTEX
  8
05
  5
CD70D
 10
122.006
 20
227.259
 30
0.000000
  70
    32
  0
VERTEX
  8
05
  5
CD70E
 10
122.014
 20
227.273
 30
0.000000
  70
    32
  0
VERTEX
  8
05
  5
CD70F
 10
122.021
 20
227.286
 30
0.000000
  70
    32
  0
VERTEX
  8
05
  5
CD710
 10
122.026
 20
227.299
 30
0.000000
  70
    32
  0
VERTEX
  8
05
  5
CD711
 10
122.030
 20
227.312
 30
0.000000
  70
    32
  0
VERTEX
  8
05
  5
CD712
 10
122.032
 20
227.325
 30
0.000000
  70
    32
  0
VERTEX
  8
05
  5
CD713
 10
122.033
 20
227.338
 30
0.000000
  70
    32
  0
SEQEND
  8
05
  5
CD714
  0
POLYLINE
  5
C961F
  8
05
 10
123.06862982789033
 20
227.4520546328032
 30
0.0
 66
     1
 70
     8
  0
VERTEX
  8
05
  5
CD715
 10
123.069
 20
227.452
 30
0.000000
  70
    32
  0
VERTEX
  8
05
  5
CD716
 10
123.069
 20
227.439
 30
0.000000
  70
    32
  0
VERTEX
  8
05
  5
CD717
 10
123.072
 20
227.426
 30
0.000000
  70
    32
  0
VERTEX
  8
05
  5
CD718
 10
123.075
 20
227.412
 30
0.000000
  70
    32
  0
VERTEX
  8
05
  5
CD719
 10
123.081
 20
227.399
 30
0.000000
  70
    32
  0
VERTEX
  8
05
  5
CD71A
 10
123.087
 20
227.386
 30
0.000000
  70
    32
  0
VERTEX
  8
05
  5
CD71B
 10
123.095
 20
227.373
 30
0.000000
  70
    32
  0
VERTEX
  8
05
  5
CD71C
 10
123.105
 20
227.360
 30
0.000000
  70
    32
  0
VERTEX
  8
05
  5
CD71D
 10
123.116
 20
227.347
 30
0.000000
  70
    32
  0
VERTEX
  8
05
  5
CD71E
 10
123.129
 20
227.334
 30
0.000000
  70
    32
  0
VERTEX
  8
05
  5
CD71F
 10
123.143
 20
227.321
 30
0.000000
  70
    32
  0
VERTEX
  8
05
  5
CD720
 10
123.158
 20
227.308
 30
0.000000
  70
    32
  0
VERTEX
  8
05
  5
CD721
 10
123.175
 20
227.296
 30
0.000000
  70
    32
  0
VERTEX
  8
05
  5
CD722
 10
123.193
 20
227.283
 30
0.000000
  70
    32
  0
VERTEX
  8
05
  5
CD723
 10
123.213
 20
227.271
 30
0.000000
  70
    32
  0
VERTEX
  8
05
  5
CD724
 10
123.234
 20
227.258
 30
0.000000
  70
    32
  0
VERTEX
  8
05
  5
CD725
 10
123.257
 20
227.246
 30
0.000000
  70
    32
  0
VERTEX
  8
05
  5
CD726
 10
123.281
 20
227.234
 30
0.000000
  70
    32
  0
VERTEX
  8
05
  5
CD727
 10
123.306
 20
227.222
 30
0.000000
  70
    32
  0
VERTEX
  8
05
  5
CD728
 10
123.333
 20
227.210
 30
0.000000
  70
    32
  0
VERTEX
  8
05
  5
CD729
 10
123.360
 20
227.198
 30
0.000000
  70
    32
  0
VERTEX
  8
05
  5
CD72A
 10
123.390
 20
227.187
 30
0.000000
  70
    32
  0
VERTEX
  8
05
  5
CD72B
 10
123.420
 20
227.175
 30
0.000000
  70
    32
  0
VERTEX
  8
05
  5
CD72C
 10
123.452
 20
227.164
 30
0.000000
  70
    32
  0
VERTEX
  8
05
  5
CD72D
 10
123.485
 20
227.153
 30
0.000000
  70
    32
  0
VERTEX
  8
05
  5
CD72E
 10
123.519
 20
227.142
 30
0.000000
  70
    32
  0
VERTEX
  8
05
  5
CD72F
 10
123.555
 20
227.131
 30
0.000000
  70
    32
  0
VERTEX
  8
05
  5
CD730
 10
123.592
 20
227.121
 30
0.000000
  70
    32
  0
VERTEX
  8
05
  5
CD731
 10
123.630
 20
227.111
 30
0.000000
  70
    32
  0
VERTEX
  8
05
  5
CD732
 10
123.669
 20
227.100
 30
0.000000
  70
    32
  0
VERTEX
  8
05
  5
CD733
 10
123.709
 20
227.091
 30
0.000000
  70
    32
  0
VERTEX
  8
05
  5
CD734
 10
123.750
 20
227.081
 30
0.000000
  70
    32
  0
VERTEX
  8
05
  5
CD735
 10
123.793
 20
227.071
 30
0.000000
  70
    32
  0
VERTEX
  8
05
  5
CD736
 10
123.836
 20
227.062
 30
0.000000
  70
    32
  0
VERTEX
  8
05
  5
CD737
 10
123.880
 20
227.053
 30
0.000000
  70
    32
  0
VERTEX
  8
05
  5
CD738
 10
123.926
 20
227.044
 30
0.000000
  70
    32
  0
VERTEX
  8
05
  5
CD739
 10
123.972
 20
227.036
 30
0.000000
  70
    32
  0
VERTEX
  8
05
  5
CD73A
 10
124.020
 20
227.028
 30
0.000000
  70
    32
  0
VERTEX
  8
05
  5
CD73B
 10
124.068
 20
227.020
 30
0.000000
  70
    32
  0
VERTEX
  8
05
  5
CD73C
 10
124.117
 20
227.012
 30
0.000000
  70
    32
  0
VERTEX
  8
05
  5
CD73D
 10
124.167
 20
227.004
 30
0.000000
  70
    32
  0
VERTEX
  8
05
  5
CD73E
 10
124.218
 20
226.997
 30
0.000000
  70
    32
  0
VERTEX
  8
05
  5
CD73F
 10
124.270
 20
226.990
 30
0.000000
  70
    32
  0
VERTEX
  8
05
  5
CD740
 10
124.322
 20
226.984
 30
0.000000
  70
    32
  0
VERTEX
  8
05
  5
CD741
 10
124.375
 20
226.977
 30
0.000000
  70
    32
  0
VERTEX
  8
05
  5
CD742
 10
124.429
 20
226.971
 30
0.000000
  70
    32
  0
VERTEX
  8
05
  5
CD743
 10
124.483
 20
226.965
 30
0.000000
  70
    32
  0
VERTEX
  8
05
  5
CD744
 10
124.539
 20
226.960
 30
0.000000
  70
    32
  0
VERTEX
  8
05
  5
CD745
 10
124.594
 20
226.955
 30
0.000000
  70
    32
  0
VERTEX
  8
05
  5
CD746
 10
124.651
 20
226.950
 30
0.000000
  70
    32
  0
VERTEX
  8
05
  5
CD747
 10
124.707
 20
226.945
 30
0.000000
  70
    32
  0
VERTEX
  8
05
  5
CD748
 10
124.765
 20
226.941
 30
0.000000
  70
    32
  0
VERTEX
  8
05
  5
CD749
 10
124.823
 20
226.937
 30
0.000000
  70
    32
  0
VERTEX
  8
05
  5
CD74A
 10
124.881
 20
226.933
 30
0.000000
  70
    32
  0
VERTEX
  8
05
  5
CD74B
 10
124.940
 20
226.930
 30
0.000000
  70
    32
  0
VERTEX
  8
05
  5
CD74C
 10
124.999
 20
226.927
 30
0.000000
  70
    32
  0
VERTEX
  8
05
  5
CD74D
 10
125.058
 20
226.924
 30
0.000000
  70
    32
  0
VERTEX
  8
05
  5
CD74E
 10
125.118
 20
226.922
 30
0.000000
  70
    32
  0
VERTEX
  8
05
  5
CD74F
 10
125.177
 20
226.920
 30
0.000000
  70
    32
  0
VERTEX
  8
05
  5
CD750
 10
125.238
 20
226.918
 30
0.000000
  70
    32
  0
VERTEX
  8
05
  5
CD751
 10
125.298
 20
226.916
 30
0.000000
  70
    32
  0
VERTEX
  8
05
  5
CD752
 10
125.358
 20
226.915
 30
0.000000
  70
    32
  0
VERTEX
  8
05
  5
CD753
 10
125.419
 20
226.914
 30
0.000000
  70
    32
  0
VERTEX
  8
05
  5
CD754
 10
125.479
 20
226.914
 30
0.000000
  70
    32
  0
VERTEX
  8
05
  5
CD755
 10
125.540
 20
226.914
 30
0.000000
  70
    32
  0
VERTEX
  8
05
  5
CD756
 10
125.601
 20
226.914
 30
0.000000
  70
    32
  0
VERTEX
  8
05
  5
CD757
 10
125.661
 20
226.914
 30
0.000000
  70
    32
  0
VERTEX
  8
05
  5
CD758
 10
125.722
 20
226.915
 30
0.000000
  70
    32
  0
VERTEX
  8
05
  5
CD759
 10
125.782
 20
226.916
 30
0.000000
  70
    32
  0
VERTEX
  8
05
  5
CD75A
 10
125.843
 20
226.918
 30
0.000000
  70
    32
  0
VERTEX
  8
05
  5
CD75B
 10
125.903
 20
226.920
 30
0.000000
  70
    32
  0
VERTEX
  8
05
  5
CD75C
 10
125.963
 20
226.922
 30
0.000000
  70
    32
  0
VERTEX
  8
05
  5
CD75D
 10
126.022
 20
226.924
 30
0.000000
  70
    32
  0
VERTEX
  8
05
  5
CD75E
 10
126.082
 20
226.927
 30
0.000000
  70
    32
  0
VERTEX
  8
05
  5
CD75F
 10
126.141
 20
226.930
 30
0.000000
  70
    32
  0
VERTEX
  8
05
  5
CD760
 10
126.199
 20
226.933
 30
0.000000
  70
    32
  0
VERTEX
  8
05
  5
CD761
 10
126.258
 20
226.937
 30
0.000000
  70
    32
  0
VERTEX
  8
05
  5
CD762
 10
126.315
 20
226.941
 30
0.000000
  70
    32
  0
VERTEX
  8
05
  5
CD763
 10
126.373
 20
226.945
 30
0.000000
  70
    32
  0
VERTEX
  8
05
  5
CD764
 10
126.430
 20
226.950
 30
0.000000
  70
    32
  0
VERTEX
  8
05
  5
CD765
 10
126.486
 20
226.955
 30
0.000000
  70
    32
  0
VERTEX
  8
05
  5
CD766
 10
126.542
 20
226.960
 30
0.000000
  70
    32
  0
VERTEX
  8
05
  5
CD767
 10
126.597
 20
226.965
 30
0.000000
  70
    32
  0
VERTEX
  8
05
  5
CD768
 10
126.651
 20
226.971
 30
0.000000
  70
    32
  0
VERTEX
  8
05
  5
CD769
 10
126.705
 20
226.977
 30
0.000000
  70
    32
  0
VERTEX
  8
05
  5
CD76A
 10
126.758
 20
226.984
 30
0.000000
  70
    32
  0
VERTEX
  8
05
  5
CD76B
 10
126.811
 20
226.990
 30
0.000000
  70
    32
  0
VERTEX
  8
05
  5
CD76C
 10
126.862
 20
226.997
 30
0.000000
  70
    32
  0
VERTEX
  8
05
  5
CD76D
 10
126.913
 20
227.004
 30
0.000000
  70
    32
  0
VERTEX
  8
05
  5
CD76E
 10
126.963
 20
227.012
 30
0.000000
  70
    32
  0
VERTEX
  8
05
  5
CD76F
 10
127.012
 20
227.020
 30
0.000000
  70
    32
  0
VERTEX
  8
05
  5
CD770
 10
127.061
 20
227.028
 30
0.000000
  70
    32
  0
VERTEX
  8
05
  5
CD771
 10
127.108
 20
227.036
 30
0.000000
  70
    32
  0
VERTEX
  8
05
  5
CD772
 10
127.154
 20
227.044
 30
0.000000
  70
    32
  0
VERTEX
  8
05
  5
CD773
 10
127.200
 20
227.053
 30
0.000000
  70
    32
  0
VERTEX
  8
05
  5
CD774
 10
127.244
 20
227.062
 30
0.000000
  70
    32
  0
VERTEX
  8
05
  5
CD775
 10
127.288
 20
227.071
 30
0.000000
  70
    32
  0
VERTEX
  8
05
  5
CD776
 10
127.330
 20
227.081
 30
0.000000
  70
    32
  0
VERTEX
  8
05
  5
CD777
 10
127.371
 20
227.091
 30
0.000000
  70
    32
  0
VERTEX
  8
05
  5
CD778
 10
127.412
 20
227.100
 30
0.000000
  70
    32
  0
VERTEX
  8
05
  5
CD779
 10
127.451
 20
227.111
 30
0.000000
  70
    32
  0
VERTEX
  8
05
  5
CD77A
 10
127.488
 20
227.121
 30
0.000000
  70
    32
  0
VERTEX
  8
05
  5
CD77B
 10
127.525
 20
227.131
 30
0.000000
  70
    32
  0
VERTEX
  8
05
  5
CD77C
 10
127.561
 20
227.142
 30
0.000000
  70
    32
  0
VERTEX
  8
05
  5
CD77D
 10
127.595
 20
227.153
 30
0.000000
  70
    32
  0
VERTEX
  8
05
  5
CD77E
 10
127.628
 20
227.164
 30
0.000000
  70
    32
  0
VERTEX
  8
05
  5
CD77F
 10
127.660
 20
227.175
 30
0.000000
  70
    32
  0
VERTEX
  8
05
  5
CD780
 10
127.690
 20
227.187
 30
0.000000
  70
    32
  0
VERTEX
  8
05
  5
CD781
 10
127.720
 20
227.198
 30
0.000000
  70
    32
  0
VERTEX
  8
05
  5
CD782
 10
127.748
 20
227.210
 30
0.000000
  70
    32
  0
VERTEX
  8
05
  5
CD783
 10
127.774
 20
227.222
 30
0.000000
  70
    32
  0
VERTEX
  8
05
  5
CD784
 10
127.800
 20
227.234
 30
0.000000
  70
    32
  0
VERTEX
  8
05
  5
CD785
 10
127.823
 20
227.246
 30
0.000000
  70
    32
  0
VERTEX
  8
05
  5
CD786
 10
127.846
 20
227.258
 30
0.000000
  70
    32
  0
VERTEX
  8
05
  5
CD787
 10
127.867
 20
227.271
 30
0.000000
  70
    32
  0
VERTEX
  8
05
  5
CD788
 10
127.887
 20
227.283
 30
0.000000
  70
    32
  0
VERTEX
  8
05
  5
CD789
 10
127.905
 20
227.296
 30
0.000000
  70
    32
  0
VERTEX
  8
05
  5
CD78A
 10
127.922
 20
227.308
 30
0.000000
  70
    32
  0
VERTEX
  8
05
  5
CD78B
 10
127.937
 20
227.321
 30
0.000000
  70
    32
  0
VERTEX
  8
05
  5
CD78C
 10
127.952
 20
227.334
 30
0.000000
  70
    32
  0
VERTEX
  8
05
  5
CD78D
 10
127.964
 20
227.347
 30
0.000000
  70
    32
  0
VERTEX
  8
05
  5
CD78E
 10
127.975
 20
227.360
 30
0.000000
  70
    32
  0
VERTEX
  8
05
  5
CD78F
 10
127.985
 20
227.373
 30
0.000000
  70
    32
  0
VERTEX
  8
05
  5
CD790
 10
127.993
 20
227.386
 30
0.000000
  70
    32
  0
VERTEX
  8
05
  5
CD791
 10
128.000
 20
227.399
 30
0.000000
  70
    32
  0
VERTEX
  8
05
  5
CD792
 10
128.005
 20
227.412
 30
0.000000
  70
    32
  0
VERTEX
  8
05
  5
CD793
 10
128.009
 20
227.426
 30
0.000000
  70
    32
  0
VERTEX
  8
05
  5
CD794
 10
128.011
 20
227.439
 30
0.000000
  70
    32
  0
VERTEX
  8
05
  5
CD795
 10
128.012
 20
227.452
 30
0.000000
  70
    32
  0
SEQEND
  8
05
  5
CD796
  0
POLYLINE
  5
C9620
  8
025
 10
123.06862982789033
 20
227.63618520811329
 30
0.0
 66
     1
 70
     8
  0
VERTEX
  8
025
  5
CD797
 10
123.069
 20
227.636
 30
0.000000
  70
    32
  0
VERTEX
  8
025
  5
CD798
 10
123.069
 20
227.623
 30
0.000000
  70
    32
  0
VERTEX
  8
025
  5
CD799
 10
123.072
 20
227.610
 30
0.000000
  70
    32
  0
VERTEX
  8
025
  5
CD79A
 10
123.075
 20
227.597
 30
0.000000
  70
    32
  0
VERTEX
  8
025
  5
CD79B
 10
123.081
 20
227.583
 30
0.000000
  70
    32
  0
VERTEX
  8
025
  5
CD79C
 10
123.087
 20
227.570
 30
0.000000
  70
    32
  0
VERTEX
  8
025
  5
CD79D
 10
123.095
 20
227.557
 30
0.000000
  70
    32
  0
VERTEX
  8
025
  5
CD79E
 10
123.105
 20
227.544
 30
0.000000
  70
    32
  0
VERTEX
  8
025
  5
CD79F
 10
123.116
 20
227.531
 30
0.000000
  70
    32
  0
VERTEX
  8
025
  5
CD7A0
 10
123.129
 20
227.518
 30
0.000000
  70
    32
  0
VERTEX
  8
025
  5
CD7A1
 10
123.143
 20
227.505
 30
0.000000
  70
    32
  0
VERTEX
  8
025
  5
CD7A2
 10
123.158
 20
227.493
 30
0.000000
  70
    32
  0
VERTEX
  8
025
  5
CD7A3
 10
123.175
 20
227.480
 30
0.000000
  70
    32
  0
VERTEX
  8
025
  5
CD7A4
 10
123.193
 20
227.467
 30
0.000000
  70
    32
  0
VERTEX
  8
025
  5
CD7A5
 10
123.213
 20
227.455
 30
0.000000
  70
    32
  0
VERTEX
  8
025
  5
CD7A6
 10
123.234
 20
227.442
 30
0.000000
  70
    32
  0
VERTEX
  8
025
  5
CD7A7
 10
123.257
 20
227.430
 30
0.000000
  70
    32
  0
VERTEX
  8
025
  5
CD7A8
 10
123.281
 20
227.418
 30
0.000000
  70
    32
  0
VERTEX
  8
025
  5
CD7A9
 10
123.306
 20
227.406
 30
0.000000
  70
    32
  0
VERTEX
  8
025
  5
CD7AA
 10
123.333
 20
227.394
 30
0.000000
  70
    32
  0
VERTEX
  8
025
  5
CD7AB
 10
123.360
 20
227.382
 30
0.000000
  70
    32
  0
VERTEX
  8
025
  5
CD7AC
 10
123.390
 20
227.371
 30
0.000000
  70
    32
  0
VERTEX
  8
025
  5
CD7AD
 10
123.420
 20
227.359
 30
0.000000
  70
    32
  0
VERTEX
  8
025
  5
CD7AE
 10
123.452
 20
227.348
 30
0.000000
  70
    32
  0
VERTEX
  8
025
  5
CD7AF
 10
123.485
 20
227.337
 30
0.000000
  70
    32
  0
VERTEX
  8
025
  5
CD7B0
 10
123.519
 20
227.326
 30
0.000000
  70
    32
  0
VERTEX
  8
025
  5
CD7B1
 10
123.555
 20
227.316
 30
0.000000
  70
    32
  0
VERTEX
  8
025
  5
CD7B2
 10
123.592
 20
227.305
 30
0.000000
  70
    32
  0
VERTEX
  8
025
  5
CD7B3
 10
123.630
 20
227.295
 30
0.000000
  70
    32
  0
VERTEX
  8
025
  5
CD7B4
 10
123.669
 20
227.285
 30
0.000000
  70
    32
  0
VERTEX
  8
025
  5
CD7B5
 10
123.709
 20
227.275
 30
0.000000
  70
    32
  0
VERTEX
  8
025
  5
CD7B6
 10
123.750
 20
227.265
 30
0.000000
  70
    32
  0
VERTEX
  8
025
  5
CD7B7
 10
123.793
 20
227.256
 30
0.000000
  70
    32
  0
VERTEX
  8
025
  5
CD7B8
 10
123.836
 20
227.246
 30
0.000000
  70
    32
  0
VERTEX
  8
025
  5
CD7B9
 10
123.880
 20
227.237
 30
0.000000
  70
    32
  0
VERTEX
  8
025
  5
CD7BA
 10
123.926
 20
227.229
 30
0.000000
  70
    32
  0
VERTEX
  8
025
  5
CD7BB
 10
123.972
 20
227.220
 30
0.000000
  70
    32
  0
VERTEX
  8
025
  5
CD7BC
 10
124.020
 20
227.212
 30
0.000000
  70
    32
  0
VERTEX
  8
025
  5
CD7BD
 10
124.068
 20
227.204
 30
0.000000
  70
    32
  0
VERTEX
  8
025
  5
CD7BE
 10
124.117
 20
227.196
 30
0.000000
  70
    32
  0
VERTEX
  8
025
  5
CD7BF
 10
124.167
 20
227.189
 30
0.000000
  70
    32
  0
VERTEX
  8
025
  5
CD7C0
 10
124.218
 20
227.181
 30
0.000000
  70
    32
  0
VERTEX
  8
025
  5
CD7C1
 10
124.270
 20
227.174
 30
0.000000
  70
    32
  0
VERTEX
  8
025
  5
CD7C2
 10
124.322
 20
227.168
 30
0.000000
  70
    32
  0
VERTEX
  8
025
  5
CD7C3
 10
124.375
 20
227.161
 30
0.000000
  70
    32
  0
VERTEX
  8
025
  5
CD7C4
 10
124.429
 20
227.155
 30
0.000000
  70
    32
  0
VERTEX
  8
025
  5
CD7C5
 10
124.483
 20
227.150
 30
0.000000
  70
    32
  0
VERTEX
  8
025
  5
CD7C6
 10
124.539
 20
227.144
 30
0.000000
  70
    32
  0
VERTEX
  8
025
  5
CD7C7
 10
124.594
 20
227.139
 30
0.000000
  70
    32
  0
VERTEX
  8
025
  5
CD7C8
 10
124.651
 20
227.134
 30
0.000000
  70
    32
  0
VERTEX
  8
025
  5
CD7C9
 10
124.707
 20
227.129
 30
0.000000
  70
    32
  0
VERTEX
  8
025
  5
CD7CA
 10
124.765
 20
227.125
 30
0.000000
  70
    32
  0
VERTEX
  8
025
  5
CD7CB
 10
124.823
 20
227.121
 30
0.000000
  70
    32
  0
VERTEX
  8
025
  5
CD7CC
 10
124.881
 20
227.117
 30
0.000000
  70
    32
  0
VERTEX
  8
025
  5
CD7CD
 10
124.940
 20
227.114
 30
0.000000
  70
    32
  0
VERTEX
  8
025
  5
CD7CE
 10
124.999
 20
227.111
 30
0.000000
  70
    32
  0
VERTEX
  8
025
  5
CD7CF
 10
125.058
 20
227.108
 30
0.000000
  70
    32
  0
VERTEX
  8
025
  5
CD7D0
 10
125.118
 20
227.106
 30
0.000000
  70
    32
  0
VERTEX
  8
025
  5
CD7D1
 10
125.177
 20
227.104
 30
0.000000
  70
    32
  0
VERTEX
  8
025
  5
CD7D2
 10
125.238
 20
227.102
 30
0.000000
  70
    32
  0
VERTEX
  8
025
  5
CD7D3
 10
125.298
 20
227.100
 30
0.000000
  70
    32
  0
VERTEX
  8
025
  5
CD7D4
 10
125.358
 20
227.099
 30
0.000000
  70
    32
  0
VERTEX
  8
025
  5
CD7D5
 10
125.419
 20
227.099
 30
0.000000
  70
    32
  0
VERTEX
  8
025
  5
CD7D6
 10
125.479
 20
227.098
 30
0.000000
  70
    32
  0
VERTEX
  8
025
  5
CD7D7
 10
125.540
 20
227.098
 30
0.000000
  70
    32
  0
VERTEX
  8
025
  5
CD7D8
 10
125.601
 20
227.098
 30
0.000000
  70
    32
  0
VERTEX
  8
025
  5
CD7D9
 10
125.661
 20
227.099
 30
0.000000
  70
    32
  0
VERTEX
  8
025
  5
CD7DA
 10
125.722
 20
227.099
 30
0.000000
  70
    32
  0
VERTEX
  8
025
  5
CD7DB
 10
125.782
 20
227.100
 30
0.000000
  70
    32
  0
VERTEX
  8
025
  5
CD7DC
 10
125.843
 20
227.102
 30
0.000000
  70
    32
  0
VERTEX
  8
025
  5
CD7DD
 10
125.903
 20
227.104
 30
0.000000
  70
    32
  0
VERTEX
  8
025
  5
CD7DE
 10
125.963
 20
227.106
 30
0.000000
  70
    32
  0
VERTEX
  8
025
  5
CD7DF
 10
126.022
 20
227.108
 30
0.000000
  70
    32
  0
VERTEX
  8
025
  5
CD7E0
 10
126.082
 20
227.111
 30
0.000000
  70
    32
  0
VERTEX
  8
025
  5
CD7E1
 10
126.141
 20
227.114
 30
0.000000
  70
    32
  0
VERTEX
  8
025
  5
CD7E2
 10
126.199
 20
227.117
 30
0.000000
  70
    32
  0
VERTEX
  8
025
  5
CD7E3
 10
126.258
 20
227.121
 30
0.000000
  70
    32
  0
VERTEX
  8
025
  5
CD7E4
 10
126.315
 20
227.125
 30
0.000000
  70
    32
  0
VERTEX
  8
025
  5
CD7E5
 10
126.373
 20
227.129
 30
0.000000
  70
    32
  0
VERTEX
  8
025
  5
CD7E6
 10
126.430
 20
227.134
 30
0.000000
  70
    32
  0
VERTEX
  8
025
  5
CD7E7
 10
126.486
 20
227.139
 30
0.000000
  70
    32
  0
VERTEX
  8
025
  5
CD7E8
 10
126.542
 20
227.144
 30
0.000000
  70
    32
  0
VERTEX
  8
025
  5
CD7E9
 10
126.597
 20
227.150
 30
0.000000
  70
    32
  0
VERTEX
  8
025
  5
CD7EA
 10
126.651
 20
227.155
 30
0.000000
  70
    32
  0
VERTEX
  8
025
  5
CD7EB
 10
126.705
 20
227.161
 30
0.000000
  70
    32
  0
VERTEX
  8
025
  5
CD7EC
 10
126.758
 20
227.168
 30
0.000000
  70
    32
  0
VERTEX
  8
025
  5
CD7ED
 10
126.811
 20
227.174
 30
0.000000
  70
    32
  0
VERTEX
  8
025
  5
CD7EE
 10
126.862
 20
227.181
 30
0.000000
  70
    32
  0
VERTEX
  8
025
  5
CD7EF
 10
126.913
 20
227.189
 30
0.000000
  70
    32
  0
VERTEX
  8
025
  5
CD7F0
 10
126.963
 20
227.196
 30
0.000000
  70
    32
  0
VERTEX
  8
025
  5
CD7F1
 10
127.012
 20
227.204
 30
0.000000
  70
    32
  0
VERTEX
  8
025
  5
CD7F2
 10
127.061
 20
227.212
 30
0.000000
  70
    32
  0
VERTEX
  8
025
  5
CD7F3
 10
127.108
 20
227.220
 30
0.000000
  70
    32
  0
VERTEX
  8
025
  5
CD7F4
 10
127.154
 20
227.229
 30
0.000000
  70
    32
  0
VERTEX
  8
025
  5
CD7F5
 10
127.200
 20
227.237
 30
0.000000
  70
    32
  0
VERTEX
  8
025
  5
CD7F6
 10
127.244
 20
227.246
 30
0.000000
  70
    32
  0
VERTEX
  8
025
  5
CD7F7
 10
127.288
 20
227.256
 30
0.000000
  70
    32
  0
VERTEX
  8
025
  5
CD7F8
 10
127.330
 20
227.265
 30
0.000000
  70
    32
  0
VERTEX
  8
025
  5
CD7F9
 10
127.371
 20
227.275
 30
0.000000
  70
    32
  0
VERTEX
  8
025
  5
CD7FA
 10
127.412
 20
227.285
 30
0.000000
  70
    32
  0
VERTEX
  8
025
  5
CD7FB
 10
127.451
 20
227.295
 30
0.000000
  70
    32
  0
VERTEX
  8
025
  5
CD7FC
 10
127.488
 20
227.305
 30
0.000000
  70
    32
  0
VERTEX
  8
025
  5
CD7FD
 10
127.525
 20
227.316
 30
0.000000
  70
    32
  0
VERTEX
  8
025
  5
CD7FE
 10
127.561
 20
227.326
 30
0.000000
  70
    32
  0
VERTEX
  8
025
  5
CD7FF
 10
127.595
 20
227.337
 30
0.000000
  70
    32
  0
VERTEX
  8
025
  5
CD800
 10
127.628
 20
227.348
 30
0.000000
  70
    32
  0
VERTEX
  8
025
  5
CD801
 10
127.660
 20
227.359
 30
0.000000
  70
    32
  0
VERTEX
  8
025
  5
CD802
 10
127.690
 20
227.371
 30
0.000000
  70
    32
  0
VERTEX
  8
025
  5
CD803
 10
127.720
 20
227.382
 30
0.000000
  70
    32
  0
VERTEX
  8
025
  5
CD804
 10
127.748
 20
227.394
 30
0.000000
  70
    32
  0
VERTEX
  8
025
  5
CD805
 10
127.774
 20
227.406
 30
0.000000
  70
    32
  0
VERTEX
  8
025
  5
CD806
 10
127.800
 20
227.418
 30
0.000000
  70
    32
  0
VERTEX
  8
025
  5
CD807
 10
127.823
 20
227.430
 30
0.000000
  70
    32
  0
VERTEX
  8
025
  5
CD808
 10
127.846
 20
227.442
 30
0.000000
  70
    32
  0
VERTEX
  8
025
  5
CD809
 10
127.867
 20
227.455
 30
0.000000
  70
    32
  0
VERTEX
  8
025
  5
CD80A
 10
127.887
 20
227.467
 30
0.000000
  70
    32
  0
VERTEX
  8
025
  5
CD80B
 10
127.905
 20
227.480
 30
0.000000
  70
    32
  0
VERTEX
  8
025
  5
CD80C
 10
127.922
 20
227.493
 30
0.000000
  70
    32
  0
VERTEX
  8
025
  5
CD80D
 10
127.937
 20
227.505
 30
0.000000
  70
    32
  0
VERTEX
  8
025
  5
CD80E
 10
127.952
 20
227.518
 30
0.000000
  70
    32
  0
VERTEX
  8
025
  5
CD80F
 10
127.964
 20
227.531
 30
0.000000
  70
    32
  0
VERTEX
  8
025
  5
CD810
 10
127.975
 20
227.544
 30
0.000000
  70
    32
  0
VERTEX
  8
025
  5
CD811
 10
127.985
 20
227.557
 30
0.000000
  70
    32
  0
VERTEX
  8
025
  5
CD812
 10
127.993
 20
227.570
 30
0.000000
  70
    32
  0
VERTEX
  8
025
  5
CD813
 10
128.000
 20
227.583
 30
0.000000
  70
    32
  0
VERTEX
  8
025
  5
CD814
 10
128.005
 20
227.597
 30
0.000000
  70
    32
  0
VERTEX
  8
025
  5
CD815
 10
128.009
 20
227.610
 30
0.000000
  70
    32
  0
VERTEX
  8
025
  5
CD816
 10
128.011
 20
227.623
 30
0.000000
  70
    32
  0
VERTEX
  8
025
  5
CD817
 10
128.012
 20
227.636
 30
0.000000
  70
    32
  0
SEQEND
  8
025
  5
CD818
  0
LINE
  5
C9621
  8
05
 10
123.0686298278906
 20
226.91899353469719
 30
0.0
 11
128.0115578732759
 21
226.91899353469719
 31
0.0
  0
LINE
  5
C9624
  8
BEM1
 62
     4
 10
72.405038780840542
 20
141.79196185060761
 30
0.0
 11
72.405038780840542
 21
123.72357251771371
 31
0.0
  0
LINE
  5
C9625
  8
BEM1
 62
     4
 10
134.6050387808406
 20
141.16270557848321
 30
0.0
 11
134.6050387808406
 21
123.72357251771371
 31
0.0
  0
LINE
  5
C9626
  8
BEM1
 62
     4
 10
75.905038780840542
 20
124.92357251771369
 30
0.0
 11
131.10503878084049
 21
124.92357251771369
 31
0.0
  0
SOLID
  5
C9627
  8
BEM1
 62
     4
 10
75.905038780840542
 20
125.50690585104709
 30
0.0
 11
75.905038780840542
 21
124.34023918438029
 31
0.0
 12
72.405038780840542
 22
124.92357251771369
 32
0.0
 13
72.405038780840542
 23
124.92357251771369
 33
0.0
  0
SOLID
  5
C9628
  8
BEM1
 62
     4
 10
131.10503878084049
 20
125.50690585104709
 30
0.0
 11
131.10503878084049
 21
124.34023918438029
 31
0.0
 12
134.6050387808406
 22
124.92357251771369
 32
0.0
 13
134.6050387808406
 23
124.92357251771369
 33
0.0
  0
INSERT
  5
C9629
  8
05
  2
*U21
 10
0.0
 20
0.0
 30
0.0
  0
LINE
  5
C962A
  8
BEM1
 62
     4
 10
136.0680466819899
 20
182.79196185060769
 30
0.0
 11
153.54921607669641
 21
182.79196185060761
 31
0.0
  0
LINE
  5
C962B
  8
BEM1
 62
     4
 10
135.8334782824798
 20
142.79196185060761
 30
0.0
 11
153.54921607669641
 21
142.79196185060761
 31
0.0
  0
LINE
  5
C962C
  8
BEM1
 62
     4
 10
152.34921607669639
 20
179.29196185060761
 30
0.0
 11
152.34921607669639
 21
146.29196185060761
 31
0.0
  0
SOLID
  5
C962D
  8
BEM1
 62
     4
 10
151.76588274336311
 20
179.29196185060761
 30
0.0
 11
152.93254941002959
 21
179.29196185060761
 31
0.0
 12
152.34921607669639
 22
182.79196185060761
 32
0.0
 13
152.34921607669639
 23
182.79196185060761
 33
0.0
  0
SOLID
  5
C962E
  8
BEM1
 62
     4
 10
151.76588274336311
 20
146.29196185060761
 30
0.0
 11
152.93254941002959
 21
146.29196185060761
 31
0.0
 12
152.34921607669639
 22
142.79196185060761
 32
0.0
 13
152.34921607669639
 23
142.79196185060761
 33
0.0
  0
INSERT
  5
C962F
  8
05
  2
*U22
 10
0.0
 20
0.0
 30
0.0
  0
LINE
  5
C9630
  8
BEM1
 62
     4
 10
135.68620631929551
 20
219.13131303072129
 30
0.0
 11
146.5940317594563
 21
219.13131303072129
 31
0.0
  0
LINE
  5
C9631
  8
BEM1
 62
     4
 10
131.1299556070125
 20
233.53641762013009
 30
0.0
 11
146.5940317594563
 21
233.53641762013009
 31
0.0
  0
LINE
  5
C9632
  8
BEM1
 62
     4
 10
152.34921607669639
 20
233.53641762013009
 30
0.0
 11
152.34921607669639
 21
212.1313130307214
 31
0.0
  0
LINE
  5
C9633
  8
BEM1
 62
     4
 10
152.34921607669639
 20
237.03641762013009
 30
0.0
 11
152.34921607669639
 21
239.78772652584411
 31
0.0
  0
SOLID
  5
C9635
  8
BEM1
 62
     4
 10
151.76588274336311
 20
237.03641762013009
 30
0.0
 11
152.93254941002959
 21
237.03641762013009
 31
0.0
 12
152.34921607669639
 22
233.53641762013009
 32
0.0
 13
152.34921607669639
 23
233.53641762013009
 33
0.0
  0
INSERT
  5
C9636
  8
05
  2
*U23
 10
0.0
 20
0.0
 30
0.0
  0
LINE
  5
C9637
  8
BEM1
 62
     4
 10
151.3620277296354
 20
233.53641762013009
 30
0.0
 11
153.54921607669641
 21
233.53641762013009
 31
0.0
  0
LINE
  5
C9638
  8
BEM1
 62
     4
 10
151.1206076357125
 20
219.13131303072129
 30
0.0
 11
153.54921607669641
 21
219.13131303072129
 31
0.0
  0
LINE
  5
C9639
  8
BEM1
 62
     4
 10
135.8195118301598
 20
219.13131303072129
 30
0.0
 11
153.54921607669641
 21
219.13131303072129
 31
0.0
  0
LINE
  5
C963A
  8
BEM1
 62
     4
 10
135.5529008084311
 20
217.63131303072129
 30
0.0
 11
153.54921607669641
 21
217.63131303072129
 31
0.0
  0
LINE
  5
C963B
  8
BEM1
 62
     4
 10
152.34921607669639
 20
222.6313130307214
 30
0.0
 11
152.34921607669639
 21
226.13131303072129
 31
0.0
  0
LINE
  5
C963C
  8
BEM1
 62
     4
 10
152.34921607669639
 20
214.1313130307214
 30
0.0
 11
152.34921607669639
 21
197.45677066373059
 31
0.0
  0
SOLID
  5
C963E
  8
BEM1
 62
     4
 10
151.76588274336311
 20
214.1313130307214
 30
0.0
 11
152.93254941002959
 21
214.1313130307214
 31
0.0
 12
152.34921607669639
 22
217.63131303072129
 32
0.0
 13
152.34921607669639
 23
217.63131303072129
 33
0.0
  0
INSERT
  5
C963F
  8
05
  2
*U24
 10
0.0
 20
0.0
 30
0.0
  0
POLYLINE
  5
C9641
  8
BEM1
 66
     1
 10
0.0
 20
0.0
 30
0.0
 70
     1
 40
0.5
 41
0.5
  0
VERTEX
  5
CD47A
  8
BEM1
 10
152.09921607669639
 20
219.13131303072129
 30
0.0
 42
1.0
  0
VERTEX
  5
CD47B
  8
BEM1
 10
152.59921607669639
 20
219.13131303072129
 30
0.0
 42
1.0
  0
SEQEND
  5
CD47C
  8
BEM1
  0
LINE
  5
C9642
  8
BEM1
 62
     4
 10
71.033204611213705
 20
219.13131303072129
 30
0.0
 11
59.13889502659277
 21
219.13131303072129
 31
0.0
  0
LINE
  5
C9643
  8
BEM1
 62
     4
 10
67.300587980394084
 20
226.08435891259199
 30
0.0
 11
59.13889502659277
 21
226.08435891259199
 31
0.0
  0
LINE
  5
C9644
  8
BEM1
 62
     4
 10
59.557019584985262
 20
226.10141859444249
 30
0.0
 11
59.557019584985262
 21
211.86931179493439
 31
0.0
  0
LINE
  5
C9645
  8
BEM1
 62
     4
 10
59.557019584985447
 20
225.53235760443749
 30
0.0
 11
59.557019584985262
 21
233.24141859444251
 31
0.0
  0
SOLID
  5
C9646
  8
BEM1
 62
     4
 10
58.973686251651991
 20
215.63131303072129
 30
0.0
 11
60.140352918318513
 21
215.63131303072129
 31
0.0
 12
59.557019584985262
 22
219.13131303072129
 32
0.0
 13
59.557019584985262
 23
219.13131303072129
 33
0.0
  0
SOLID
  5
C9647
  8
BEM1
 62
     4
 10
58.973686251651991
 20
229.58435891259211
 30
0.0
 11
60.140352918318513
 21
229.58435891259211
 31
0.0
 12
59.557019584985262
 22
226.08435891259199
 32
0.0
 13
59.557019584985262
 23
226.08435891259199
 33
0.0
  0
INSERT
  5
C9648
  8
05
  2
*U25
 10
0.0
 20
0.0
 30
0.0
  0
LINE
  5
C964A
  8
BEM1
 62
     4
 10
67.025513584060946
 20
173.43250305060769
 30
0.0
 11
58.905946686036252
 21
173.43250305060769
 31
0.0
  0
LINE
  5
C964B
  8
BEM1
 62
     4
 10
67.025513584060946
 20
152.15142065060761
 30
0.0
 11
58.905946686036252
 21
152.15142065060761
 31
0.0
  0
LINE
  5
C964C
  8
BEM1
 62
     4
 10
59.557019584985262
 20
169.93250305060769
 30
0.0
 11
59.557019584985262
 21
155.65142065060761
 31
0.0
  0
SOLID
  5
C964D
  8
BEM1
 62
     4
 10
58.973686251651991
 20
169.93250305060769
 30
0.0
 11
60.140352918318513
 21
169.93250305060769
 31
0.0
 12
59.557019584985262
 22
173.43250305060769
 32
0.0
 13
59.557019584985262
 23
173.43250305060769
 33
0.0
  0
SOLID
  5
C964E
  8
BEM1
 62
     4
 10
58.973686251651991
 20
155.65142065060761
 30
0.0
 11
60.140352918318513
 21
155.65142065060761
 31
0.0
 12
59.557019584985262
 22
152.15142065060761
 32
0.0
 13
59.557019584985262
 23
152.15142065060761
 33
0.0
  0
INSERT
  5
C964F
  8
05
  2
*U26
 10
0.0
 20
0.0
 30
0.0
  0
LINE
  5
CD01C
  8
025
 10
81.864556426879517
 20
230.78429439286191
 30
0.0
 11
79.627357689720839
 21
230.78429439286191
 31
0.0
  0
LINE
  5
CD01D
  8
025
 10
83.233199166366376
 20
230.78429439286191
 30
0.0
 11
82.285679009449709
 21
230.78429439286191
 31
0.0
  0
LINE
  5
CD01E
  8
025
 10
89.646235470472675
 20
230.78429439286191
 30
0.0
 11
88.698715313556022
 21
230.78429439286191
 31
0.0
  0
LINE
  5
CD01F
  8
025
 10
87.774609558582156
 20
230.78429439286191
 30
0.0
 11
85.537410821423464
 21
230.78429439286191
 31
0.0
  0
LINE
  5
CD020
  8
025
 10
93.684662690284767
 20
230.78429439286191
 30
0.0
 11
91.447463953126075
 21
230.78429439286191
 31
0.0
  0
LINE
  5
CD021
  8
025
 10
95.304797586612722
 20
230.78429439286191
 30
0.0
 11
94.357277429696069
 21
230.78429439286191
 31
0.0
  0
INSERT
  5
CD06A
  8
05
  2
ACAD
 10
0.0
 20
0.0
 30
0.0
  0
POLYLINE
  5
CD06B
  8
VERDECKT
 66
     1
 10
0.0
 20
0.0
 30
0.0
  0
VERTEX
  5
CD485
  8
VERDECKT
 10
78.50503878084055
 20
164.07304425060761
 30
0.0
  0
VERTEX
  5
CD486
  8
VERDECKT
 10
78.50503878084055
 20
182.79196185060761
 30
0.0
  0
VERTEX
  5
CD487
  8
VERDECKT
 10
80.187254772840106
 20
182.79196185060769
 30
0.0
  0
SEQEND
  5
CD488
  8
VERDECKT
  0
POLYLINE
  5
CD06C
  8
VERDECKT
 66
     1
 10
0.0
 20
0.0
 30
0.0
  0
VERTEX
  5
CD489
  8
VERDECKT
 10
78.50503878084055
 20
161.5108794506078
 30
0.0
  0
VERTEX
  5
CD48A
  8
VERDECKT
 10
78.50503878084055
 20
142.79196185060761
 30
0.0
  0
VERTEX
  5
CD48B
  8
VERDECKT
 10
80.187254772840106
 20
142.79196185060761
 30
0.0
  0
SEQEND
  5
CD48C
  8
VERDECKT
  0
POLYLINE
  5
CD06E
  8
VERDECKT
 66
     1
 10
0.0
 20
0.0
 30
0.0
  0
VERTEX
  5
CD48D
  8
VERDECKT
 10
128.50503878084049
 20
164.0730442506075
 30
0.0
  0
VERTEX
  5
CD48E
  8
VERDECKT
 10
128.50503878084049
 20
182.79196185060761
 30
0.0
  0
VERTEX
  5
CD48F
  8
VERDECKT
 10
126.82282278884099
 20
182.79196185060761
 30
0.0
  0
SEQEND
  5
CD490
  8
VERDECKT
  0
POLYLINE
  5
CD06F
  8
VERDECKT
 66
     1
 10
0.0
 20
0.0
 30
0.0
  0
VERTEX
  5
CD491
  8
VERDECKT
 10
128.50503878084049
 20
161.5108794506076
 30
0.0
  0
VERTEX
  5
CD492
  8
VERDECKT
 10
128.50503878084049
 20
142.79196185060761
 30
0.0
  0
VERTEX
  5
CD493
  8
VERDECKT
 10
126.82282278884099
 20
142.79196185060749
 30
0.0
  0
SEQEND
  5
CD494
  8
VERDECKT
  0
INSERT
  5
CD073
  8
05
  2
*U27
 10
0.0
 20
0.0
 30
0.0
  0
INSERT
  5
CD074
  8
05
  2
*U28
 10
0.0
 20
0.0
 30
0.0
  0
INSERT
  5
CD075
  8
05
  2
*U29
 10
0.0
 20
0.0
 30
0.0
  0
INSERT
  5
CD076
  8
05
  2
*U30
 10
0.0
 20
0.0
 30
0.0
  0
INSERT
  5
CD077
  8
05
  2
*U31
 10
0.0
 20
0.0
 30
0.0
  0
INSERT
  5
CD078
  8
05
  2
*U32
 10
0.0
 20
0.0
 30
0.0
  0
INSERT
  5
CD18F
  8
BEM1
 66
     1
  2
ZKOPF-REAN
 10
204.99999998529279
 20
4.9999999828261252
 30
0.0
  0
ATTRIB
  5
CD190
  8
0
 62
     4
 10
189.8333333186261
 20
41.999999982826132
 30
0.0
 40
2.5
  1
Battlogg
  7
SCRIPTS
 72
     1
 11
196.49999998529279
 21
41.999999982826132
 31
0.0
  2
NAME
 70
     0
  0
ATTRIB
  5
CD191
  8
0
 62
     4
 10
175.68749998529279
 20
41.999999982826132
 30
0.0
 40
2.5
  1
05.02.01
 41
0.7
 51
15.0
 72
     1
 11
180.49999998529279
 21
41.999999982826132
 31
0.0
  2
DATE
 70
     0
  0
ATTRIB
  5
CD192
  8
0
 62
     4
 10
124.4999999852928
 20
40.999999982826118
 30
0.0
 40
2.5
  1

 41
0.7
 51
15.0
 72
     1
 11
124.4999999852928
 21
40.999999982826118
 31
0.0
  2
WERKSTOFF
 70
     0
  0
ATTRIB
  5
CD193
  8
0
 62
     2
 10
98.41666665195946
 20
17.499999982826122
 30
0.0
 40
5.0
  1
NYS-SPCR1
 41
0.7
 51
15.0
 72
     1
 11
112.9999999852928
 21
17.499999982826122
 31
0.0
  2
BENENNUNG
 70
     0
  0
ATTRIB
  5
CD194
  8
0
 62
     3
 10
100.0345433834141
 20
26.08219143335306
 30
0.0
 40
3.5
  1
1/4" Patch Box
 41
0.7
 51
15.0
 72
     1
 11
115.9595433834141
 21
26.08219143335306
 31
0.0
  2
TEIL
 70
     0
  0
ATTRIB
  5
CD195
  8
0
 62
     3
 10
168.9331142360497
 20
6.9765409993639187
 30
0.0
 40
3.5
  1
3102 ST 22 105
 41
0.7
 51
15.0
 72
     1
 11
184.44978090271641
 21
6.9765409993639187
 31
0.0
  2
NUMMER
 70
     0
  0
ATTRIB
  5
CD196
  8
0
 62
     2
 10
142.10066168115
 20
39.656056215760657
 30
0.0
 40
5.0
  1
1:1
 41
0.7
 51
15.0
 72
     1
 11
144.43399501448329
 21
39.656056215760657
 31
0.0
  2
MASS
 70
     0
  0
ATTRIB
  5
CD197
  8
0
 62
     3
 10
144.5192990393127
 20
33.21045052200143
 30
0.0
 40
3.5
  1

 41
0.7
 51
15.0
 72
     1
 11
144.5192990393127
 21
33.21045052200143
 31
0.0
  2
MASS2
 70
     0
  0
ATTRIB
  5
CD198
  8
0
 62
     4
 10
123.9999999852928
 20
33.999999982826132
 30
0.0
 40
2.5
  1

 41
0.7
 51
15.0
 72
     1
 11
123.9999999852928
 21
33.999999982826132
 31
0.0
  2
TEIL
 70
     0
  0
ATTRIB
  5
CD199
  8
0
 62
     3
 10
97.288548044730945
 20
64.004318730255562
 30
0.0
 40
3.5
  1

 41
0.7
 51
15.0
  2
TOL
 70
     0
  0
ATTRIB
  5
CD19A
  8
0
 62
     3
 10
97.288548044730945
 20
59.004318730255562
 30
0.0
 40
3.5
  1

 41
0.7
 51
15.0
  2
RADIEN
 70
     0
  0
ATTRIB
  5
CD19B
  8
0
 62
     3
 10
97.288548044730945
 20
54.004318730255562
 30
0.0
 40
3.5
  1

 41
0.7
 51
15.0
  2
FACETTE
 70
     0
  0
ATTRIB
  5
CD19C
  8
0
 62
     4
 10
7.8137327269101311
 20
11.99999998282612
 30
0.0
 40
2.5
  1

 41
0.7
 51
15.0
  2
INDEX1
 70
     0
  0
ATTRIB
  5
CD19D
  8
0
 62
     4
 10
14.65125738174248
 20
11.99999998282612
 30
0.0
 40
2.5
  1

 41
0.7
 51
15.0
  2
A1
 70
     0
  0
ATTRIB
  5
CD19E
  8
0
 62
     4
 10
47.651257381742482
 20
11.99999998282612
 30
0.0
 40
2.5
  1

 41
0.7
 51
15.0
  2
DATUM1
 70
     0
  0
ATTRIB
  5
CD19F
  8
0
 62
     4
 10
60.535009847225751
 20
11.99999998282612
 30
0.0
 40
2.5
  1

 41
0.7
 51
15.0
  2
NAME1
 70
     0
  0
ATTRIB
  5
CD1A0
  8
0
 62
     4
 10
7.8137327269101311
 20
16.999999982826122
 30
0.0
 40
2.5
  1

 41
0.7
 51
15.0
  2
INDEX2
 70
     0
  0
ATTRIB
  5
CD1A1
  8
0
 62
     4
 10
14.65125738174248
 20
16.999999982826122
 30
0.0
 40
2.5
  1

 41
0.7
 51
15.0
  2
A2
 70
     0
  0
ATTRIB
  5
CD1A2
  8
0
 62
     4
 10
47.651257381742482
 20
16.999999982826122
 30
0.0
 40
2.5
  1

 41
0.7
 51
15.0
  2
DATUM2
 70
     0
  0
ATTRIB
  5
CD1A3
  8
0
 62
     4
 10
60.535009847225751
 20
16.999999982826122
 30
0.0
 40
2.5
  1

 41
0.7
 51
15.0
  2
NAME2
 70
     0
  0
ATTRIB
  5
CD1A4
  8
0
 62
     4
 10
7.8137327269101311
 20
21.999999982826129
 30
0.0
 40
2.5
  1

 41
0.7
 51
15.0
  2
INDEX3
 70
     0
  0
ATTRIB
  5
CD1A5
  8
0
 62
     4
 10
14.65125738174248
 20
21.999999982826129
 30
0.0
 40
2.5
  1

 41
0.7
 51
15.0
  2
A3
 70
     0
  0
ATTRIB
  5
CD1A6
  8
0
 62
     4
 10
47.651257381742482
 20
21.999999982826129
 30
0.0
 40
2.5
  1

 41
0.7
 51
15.0
  2
DATUM3
 70
     0
  0
ATTRIB
  5
CD1A7
  8
0
 62
     4
 10
60.535009847225751
 20
21.999999982826129
 30
0.0
 40
2.5
  1

 41
0.7
 51
15.0
  2
NAME3
 70
     0
  0
ATTRIB
  5
CD1A8
  8
0
 62
     4
 10
7.8137327269101311
 20
26.999999982826129
 30
0.0
 40
2.5
  1

 41
0.7
 51
15.0
  2
INDEX4
 70
     0
  0
ATTRIB
  5
CD1A9
  8
0
 62
     4
 10
14.65125738174248
 20
26.999999982826129
 30
0.0
 40
2.5
  1

 41
0.7
 51
15.0
  2
A4
 70
     0
  0
ATTRIB
  5
CD1AA
  8
0
 62
     4
 10
47.651257381742482
 20
26.999999982826129
 30
0.0
 40
2.5
  1

 41
0.7
 51
15.0
  2
DATUM4
 70
     0
  0
ATTRIB
  5
CD1AB
  8
0
 62
     4
 10
60.535009847225751
 20
26.999999982826129
 30
0.0
 40
2.5
  1

 41
0.7
 51
15.0
  2
NAME4
 70
     0
  0
ATTRIB
  5
CD1AC
  8
0
 62
     4
 10
7.8137327269101311
 20
31.999999982826129
 30
0.0
 40
2.5
  1

 41
0.7
 51
15.0
  2
INDEX5
 70
     0
  0
ATTRIB
  5
CD1AD
  8
0
 62
     4
 10
14.65125738174248
 20
31.999999982826129
 30
0.0
 40
2.5
  1

 41
0.7
 51
15.0
  2
A5
 70
     0
  0
ATTRIB
  5
CD1AE
  8
0
 62
     4
 10
47.651257381742482
 20
31.999999982826129
 30
0.0
 40
2.5
  1

 41
0.7
 51
15.0
  2
DATUM5
 70
     0
  0
ATTRIB
  5
CD1AF
  8
0
 62
     4
 10
60.535009847225751
 20
31.999999982826129
 30
0.0
 40
2.5
  1

 41
0.7
 51
15.0
  2
NAME5
 70
     0
  0
ATTRIB
  5
CD1B0
  8
0
 62
     4
 10
7.8137327269101311
 20
36.999999982826132
 30
0.0
 40
2.5
  1

 41
0.7
 51
15.0
  2
INDEX6
 70
     0
  0
ATTRIB
  5
CD1B1
  8
0
 62
     4
 10
14.65125738174248
 20
36.999999982826132
 30
0.0
 40
2.5
  1

 41
0.7
 51
15.0
  2
A6
 70
     0
  0
ATTRIB
  5
CD1B2
  8
0
 62
     4
 10
47.651257381742482
 20
36.999999982826132
 30
0.0
 40
2.5
  1

 41
0.7
 51
15.0
  2
DATUM6
 70
     0
  0
ATTRIB
  5
CD1B3
  8
0
 62
     4
 10
60.535009847225751
 20
36.999999982826132
 30
0.0
 40
2.5
  1

 41
0.7
 51
15.0
  2
NAME6
 70
     0
  0
ATTRIB
  5
CD1B4
  8
0
 62
     4
 10
7.8137327269101311
 20
41.999999982826132
 30
0.0
 40
2.5
  1

 41
0.7
 51
15.0
  2
INDEX7
 70
     0
  0
ATTRIB
  5
CD1B5
  8
0
 62
     4
 10
14.65125738174248
 20
41.999999982826132
 30
0.0
 40
2.5
  1

 41
0.7
 51
15.0
  2
A7
 70
     0
  0
ATTRIB
  5
CD1B6
  8
0
 62
     4
 10
47.651257381742482
 20
41.999999982826132
 30
0.0
 40
2.5
  1

 41
0.7
 51
15.0
  2
DATUM7
 70
     0
  0
ATTRIB
  5
CD1B7
  8
0
 62
     4
 10
60.535009847225751
 20
41.999999982826132
 30
0.0
 40
2.5
  1

 41
0.7
 51
15.0
  2
NAME7
 70
     0
  0
ATTRIB
  5
CD1B8
  8
0
 62
     4
 10
7.8137327269101311
 20
46.999999982826132
 30
0.0
 40
2.5
  1

 41
0.7
 51
15.0
  2
INDEX8
 70
     0
  0
ATTRIB
  5
CD1B9
  8
0
 62
     4
 10
14.65125738174248
 20
46.999999982826132
 30
0.0
 40
2.5
  1

 41
0.7
 51
15.0
  2
A8
 70
     0
  0
ATTRIB
  5
CD1BA
  8
0
 62
     4
 10
47.651257381742482
 20
46.999999982826132
 30
0.0
 40
2.5
  1

 41
0.7
 51
15.0
  2
DATUM8
 70
     0
  0
ATTRIB
  5
CD1BB
  8
0
 62
     4
 10
60.535009847225751
 20
46.999999982826132
 30
0.0
 40
2.5
  1

 41
0.7
 51
15.0
  2
NAME8
 70
     0
  0
SEQEND
  5
CD1BC
  8
BEM1
  0
LINE
  5
CD1D3
  8
MITTE
 10
103.50503878084049
 20
183.19196185060761
 30
0.0
 11
103.50503878084049
 21
142.3919618506076
 31
0.0
  0
POLYLINE
  5
CD1D6
  8
05
 62
     1
 66
     1
 10
0.0
 20
0.0
 30
0.0
  0
VERTEX
  5
CD4FF
  8
05
 62
     1
 10
72.405038780840542
 20
178.34621892060761
 30
0.0
  0
VERTEX
  5
CD500
  8
05
 62
     1
 10
72.405038780840542
 20
182.79196185060761
 30
0.0
  0
VERTEX
  5
CD501
  8
05
 62
     1
 10
134.6050387808406
 20
182.79196185060761
 30
0.0
  0
VERTEX
  5
CD502
  8
05
 62
     1
 10
134.6050387808406
 20
178.34621892060761
 30
0.0
  0
SEQEND
  5
CD503
  8
05
 62
     1
  0
POLYLINE
  5
CD1D9
  8
05
 62
     1
 66
     1
 10
0.0
 20
0.0
 30
0.0
  0
VERTEX
  5
CD504
  8
05
 62
     1
 10
72.405038780840542
 20
157.06513652060761
 30
0.0
  0
VERTEX
  5
CD505
  8
05
 62
     1
 10
72.405038780840542
 20
168.5187871806076
 30
0.0
  0
SEQEND
  5
CD506
  8
05
 62
     1
  0
POLYLINE
  5
CD1DA
  8
05
 62
     1
 66
     1
 10
0.0
 20
0.0
 30
0.0
  0
VERTEX
  5
CD507
  8
05
 62
     1
 10
134.6050387808406
 20
168.5187871806076
 30
0.0
  0
VERTEX
  5
CD508
  8
05
 62
     1
 10
134.6050387808406
 20
157.06513652060761
 30
0.0
  0
SEQEND
  5
CD509
  8
05
 62
     1
  0
POLYLINE
  5
CD1DB
  8
05
 62
     1
 66
     1
 10
0.0
 20
0.0
 30
0.0
  0
VERTEX
  5
CD50A
  8
05
 62
     1
 10
134.6050387808406
 20
147.2377047806076
 30
0.0
  0
VERTEX
  5
CD50B
  8
05
 62
     1
 10
134.6050387808406
 20
142.79196185060761
 30
0.0
  0
SEQEND
  5
CD50C
  8
05
 62
     1
  0
ENDSEC
  0
EOF
