  0
SECTION
  2
HEADER
  9
$ACADVER
  1
AC1018
  9
$ACADMAINTVER
 70
    76
  9
$DWGCODEPAGE
  3
ANSI_1252
  9
$INSBASE
 10
0.0
 20
0.0
 30
0.0
  9
$EXTMIN
 10
0.0
 20
0.0
 30
0.0
  9
$EXTMAX
 10
210.0
 20
297.0
 30
0.0
  9
$LIMMIN
 10
0.0
 20
0.0
  9
$LIMMAX
 10
410.0
 20
287.0
  9
$ORTHOMODE
 70
     0
  9
$REGENMODE
 70
     1
  9
$FILLMODE
 70
     1
  9
$QTEXTMODE
 70
     0
  9
$MIRRTEXT
 70
     1
  9
$LTSCALE
 40
3.0
  9
$ATTMODE
 70
     1
  9
$TEXTSIZE
 40
3.5
  9
$TRACEWID
 40
26.0
  9
$TEXTSTYLE
  7
STANDARD
  9
$CLAYER
  8
BEM1
  9
$CELTYPE
  6
BYLAYER
  9
$CECOLOR
 62
   256
  9
$CELTSCALE
 40
1.0
  9
$DISPSILH
 70
     0
  9
$DIMSCALE
 40
1.0
  9
$DIMASZ
 40
3.5
  9
$DIMEXO
 40
1.0
  9
$DIMDLI
 40
8.0
  9
$DIMRND
 40
0.0
  9
$DIMDLE
 40
0.0
  9
$DIMEXE
 40
1.199999999999999
  9
$DIMTP
 40
0.0
  9
$DIMTM
 40
0.0
  9
$DIMTXT
 40
3.5
  9
$DIMCEN
 40
0.0
  9
$DIMTSZ
 40
0.0
  9
$DIMTOL
 70
     0
  9
$DIMLIM
 70
     0
  9
$DIMTIH
 70
     0
  9
$DIMTOH
 70
     0
  9
$DIMSE1
 70
     0
  9
$DIMSE2
 70
     0
  9
$DIMTAD
 70
     1
  9
$DIMZIN
 70
     0
  9
$DIMBLK
  1

  9
$DIMASO
 70
     0
  9
$DIMSHO
 70
     0
  9
$DIMPOST
  1

  9
$DIMAPOST
  1
"
  9
$DIMALT
 70
     0
  9
$DIMALTD
 70
     3
  9
$DIMALTF
 40
0.039370079
  9
$DIMLFAC
 40
1.0
  9
$DIMTOFL
 70
     0
  9
$DIMTVP
 40
0.0
  9
$DIMTIX
 70
     1
  9
$DIMSOXD
 70
     0
  9
$DIMSAH
 70
     0
  9
$DIMBLK1
  1

  9
$DIMBLK2
  1

  9
$DIMSTYLE
  2
NEUTRIK
  9
$DIMCLRD
 70
     4
  9
$DIMCLRE
 70
     4
  9
$DIMCLRT
 70
     3
  9
$DIMTFAC
 40
1.0
  9
$DIMGAP
 40
0.15
  9
$DIMJUST
 70
     0
  9
$DIMSD1
 70
     0
  9
$DIMSD2
 70
     0
  9
$DIMTOLJ
 70
     1
  9
$DIMTZIN
 70
     0
  9
$DIMALTZ
 70
     0
  9
$DIMALTTZ
 70
     0
  9
$DIMUPT
 70
     0
  9
$DIMDEC
 70
     2
  9
$DIMTDEC
 70
     2
  9
$DIMALTU
 70
     2
  9
$DIMALTTD
 70
     3
  9
$DIMTXSTY
  7
STANDARD
  9
$DIMAUNIT
 70
     0
  9
$DIMADEC
 70
     0
  9
$DIMALTRND
 40
0.0
  9
$DIMAZIN
 70
     0
  9
$DIMDSEP
 70
    46
  9
$DIMATFIT
 70
     3
  9
$DIMFRAC
 70
     0
  9
$DIMLDRBLK
  1

  9
$DIMLUNIT
 70
     2
  9
$DIMLWD
 70
    -2
  9
$DIMLWE
 70
    -2
  9
$DIMTMOVE
 70
     2
  9
$LUNITS
 70
     2
  9
$LUPREC
 70
     2
  9
$SKETCHINC
 40
0.3878978521428445
  9
$FILLETRAD
 40
1.0
  9
$AUNITS
 70
     0
  9
$AUPREC
 70
     2
  9
$MENU
  1
acad
  9
$ELEVATION
 40
0.0
  9
$PELEVATION
 40
0.0
  9
$THICKNESS
 40
0.0
  9
$LIMCHECK
 70
     0
  9
$CHAMFERA
 40
0.0
  9
$CHAMFERB
 40
0.0
  9
$CHAMFERC
 40
0.0
  9
$CHAMFERD
 40
0.0
  9
$SKPOLY
 70
     0
  9
$TDCREATE
 40
2450555.560589005
  9
$TDUCREATE
 40
2450555.477255671
  9
$TDUPDATE
 40
2454266.676501933
  9
$TDUUPDATE
 40
2454266.593168600
  9
$TDINDWG
 40
0.7458806829
  9
$TDUSRTIMER
 40
0.7458806829
  9
$USRTIMER
 70
     1
  9
$ANGBASE
 50
0.0
  9
$ANGDIR
 70
     0
  9
$PDMODE
 70
     0
  9
$PDSIZE
 40
0.0
  9
$PLINEWID
 40
0.0
  9
$SPLFRAME
 70
     0
  9
$SPLINETYPE
 70
     6
  9
$SPLINESEGS
 70
     8
  9
$HANDSEED
  5
C8955
  9
$SURFTAB1
 70
     6
  9
$SURFTAB2
 70
     6
  9
$SURFTYPE
 70
     6
  9
$SURFU
 70
     6
  9
$SURFV
 70
     6
  9
$UCSBASE
  2

  9
$UCSNAME
  2

  9
$UCSORG
 10
0.0
 20
0.0
 30
0.0
  9
$UCSXDIR
 10
1.0
 20
0.0
 30
0.0
  9
$UCSYDIR
 10
0.0
 20
1.0
 30
0.0
  9
$UCSORTHOREF
  2

  9
$UCSORTHOVIEW
 70
     0
  9
$UCSORGTOP
 10
0.0
 20
0.0
 30
0.0
  9
$UCSORGBOTTOM
 10
0.0
 20
0.0
 30
0.0
  9
$UCSORGLEFT
 10
0.0
 20
0.0
 30
0.0
  9
$UCSORGRIGHT
 10
0.0
 20
0.0
 30
0.0
  9
$UCSORGFRONT
 10
0.0
 20
0.0
 30
0.0
  9
$UCSORGBACK
 10
0.0
 20
0.0
 30
0.0
  9
$PUCSBASE
  2

  9
$PUCSNAME
  2

  9
$PUCSORG
 10
0.0
 20
0.0
 30
0.0
  9
$PUCSXDIR
 10
1.0
 20
0.0
 30
0.0
  9
$PUCSYDIR
 10
0.0
 20
1.0
 30
0.0
  9
$PUCSORTHOREF
  2

  9
$PUCSORTHOVIEW
 70
     0
  9
$PUCSORGTOP
 10
0.0
 20
0.0
 30
0.0
  9
$PUCSORGBOTTOM
 10
0.0
 20
0.0
 30
0.0
  9
$PUCSORGLEFT
 10
0.0
 20
0.0
 30
0.0
  9
$PUCSORGRIGHT
 10
0.0
 20
0.0
 30
0.0
  9
$PUCSORGFRONT
 10
0.0
 20
0.0
 30
0.0
  9
$PUCSORGBACK
 10
0.0
 20
0.0
 30
0.0
  9
$USERI1
 70
     0
  9
$USERI2
 70
     0
  9
$USERI3
 70
     0
  9
$USERI4
 70
     0
  9
$USERI5
 70
     0
  9
$USERR1
 40
0.0
  9
$USERR2
 40
0.0
  9
$USERR3
 40
0.0
  9
$USERR4
 40
0.0
  9
$USERR5
 40
0.0
  9
$WORLDVIEW
 70
     1
  9
$SHADEDGE
 70
     3
  9
$SHADEDIF
 70
    70
  9
$TILEMODE
 70
     1
  9
$MAXACTVP
 70
    16
  9
$PINSBASE
 10
0.0
 20
0.0
 30
0.0
  9
$PLIMCHECK
 70
     0
  9
$PEXTMIN
 10
1.000000000000000E+20
 20
1.000000000000000E+20
 30
1.000000000000000E+20
  9
$PEXTMAX
 10
-1.000000000000000E+20
 20
-1.000000000000000E+20
 30
-1.000000000000000E+20
  9
$PLIMMIN
 10
0.0
 20
0.0
  9
$PLIMMAX
 10
12.0
 20
9.0
  9
$UNITMODE
 70
     0
  9
$VISRETAIN
 70
     0
  9
$PLINEGEN
 70
     0
  9
$PSLTSCALE
 70
     0
  9
$TREEDEPTH
 70
  3020
  9
$CMLSTYLE
  2
STANDARD
  9
$CMLJUST
 70
     0
  9
$CMLSCALE
 40
1.0
  9
$PROXYGRAPHICS
 70
     1
  9
$MEASUREMENT
 70
     0
  9
$CELWEIGHT
370
    -1
  9
$ENDCAPS
280
     0
  9
$JOINSTYLE
280
     0
  9
$LWDISPLAY
290
     0
  9
$INSUNITS
 70
     0
  9
$HYPERLINKBASE
  1

  9
$STYLESHEET
  1

  9
$XEDIT
290
     1
  9
$CEPSNTYPE
380
     0
  9
$PSTYLEMODE
290
     1
  9
$FINGERPRINTGUID
  2
{DD9E7406-8AAE-49A8-AF8F-5F1BB6496C2D}
  9
$VERSIONGUID
  2
{66217E46-8CEA-4AB1-A53D-F25E76427658}
  9
$EXTNAMES
290
     1
  9
$PSVPSCALE
 40
0.0
  9
$OLESTARTUP
290
     0
  9
$SORTENTS
280
    96
  9
$INDEXCTL
280
     0
  9
$HIDETEXT
280
     0
  9
$XCLIPFRAME
290
     0
  9
$HALOGAP
280
     0
  9
$OBSCOLOR
 70
   257
  9
$OBSLTYPE
280
     0
  9
$INTERSECTIONDISPLAY
280
     0
  9
$INTERSECTIONCOLOR
 70
   257
  9
$DIMASSOC
280
     0
  9
$PROJECTNAME
  1

  0
ENDSEC
  0
SECTION
  2
CLASSES
  0
CLASS
  1
DICTIONARYVAR
  2
AcDbDictionaryVar
  3
ObjectDBX Classes
 90
        0
 91
        2
280
     0
281
     0
  0
CLASS
  1
ACDBDICTIONARYWDFLT
  2
AcDbDictionaryWithDefault
  3
ObjectDBX Classes
 90
        0
 91
        1
280
     0
281
     0
  0
CLASS
  1
TABLESTYLE
  2
AcDbTableStyle
  3
ObjectDBX Classes
 90
     2047
 91
        1
280
     0
281
     0
  0
ENDSEC
  0
SECTION
  2
TABLES
  0
TABLE
  2
VPORT
  5
C6434
330
0
100
AcDbSymbolTable
 70
     2
  0
VPORT
  5
C8954
330
C6434
100
AcDbSymbolTableRecord
100
AcDbViewportTableRecord
  2
*Active
 70
     0
 10
0.0
 20
0.0
 11
1.0
 21
1.0
 12
104.9915348506315
 22
148.5000027661758
 13
0.0
 23
0.0
 14
1.0
 24
1.0
 15
2.0
 25
2.0
 16
0.0
 26
0.0
 36
1.0
 17
0.0
 27
0.0
 37
0.0
 40
298.9530590483299
 41
1.351184346035015
 42
50.0
 43
0.0
 44
0.0
 50
0.0
 51
0.0
 71
     0
 72
   500
 73
     1
 74
     0
 75
     0
 76
     0
 77
     0
 78
     2
281
     0
 65
     1
110
0.0
120
0.0
130
0.0
111
1.0
121
0.0
131
0.0
112
0.0
122
1.0
132
0.0
 79
     0
146
0.0
  0
ENDTAB
  0
TABLE
  2
LTYPE
  5
C6431
330
0
100
AcDbSymbolTable
 70
     4
  0
LTYPE
  5
C643D
330
C6431
100
AcDbSymbolTableRecord
100
AcDbLinetypeTableRecord
  2
BYBLOCK
 70
     0
  3

 72
    65
 73
     0
 40
0.0
  0
LTYPE
  5
C643E
330
C6431
100
AcDbSymbolTableRecord
100
AcDbLinetypeTableRecord
  2
BYLAYER
 70
     0
  3

 72
    65
 73
     0
 40
0.0
  0
LTYPE
  5
C643F
330
C6431
100
AcDbSymbolTableRecord
100
AcDbLinetypeTableRecord
  2
AUSGEZOGEN
 70
     0
  3
Ausgezogene Linie
 72
    65
 73
     0
 40
0.0
  0
LTYPE
  5
C6455
330
C6431
100
AcDbSymbolTableRecord
100
AcDbLinetypeTableRecord
  2
CENTER
 70
     0
  3
____ _ ____ _ ____ _ ____ _ ____ _ ____ _ ____
 72
    65
 73
     4
 40
2.0
 49
1.25
 74
     0
 49
-0.25
 74
     0
 49
0.25
 74
     0
 49
-0.25
 74
     0
  0
LTYPE
  5
C6463
330
C6431
100
AcDbSymbolTableRecord
100
AcDbLinetypeTableRecord
  2
CONTINUOUS
 70
     0
  3
Solid line
 72
    65
 73
     0
 40
0.0
  0
LTYPE
  5
C7697
330
C6431
100
AcDbSymbolTableRecord
100
AcDbLinetypeTableRecord
  2
PUNKT
 70
     0
  3
. . . . . . . . . . . . . . . . . . . . . . . .
 72
    65
 73
     2
 40
0.25
 49
0.0
 74
     0
 49
-0.25
 74
     0
  0
ENDTAB
  0
TABLE
  2
LAYER
  5
C642E
330
0
100
AcDbSymbolTable
 70
     9
  0
LAYER
  5
C643A
330
C642E
100
AcDbSymbolTableRecord
100
AcDbLayerTableRecord
  2
0
 70
     0
 62
     7
  6
AUSGEZOGEN
370
    -3
390
C8935
  0
LAYER
  5
C645A
330
C642E
100
AcDbSymbolTableRecord
100
AcDbLayerTableRecord
  2
05
 70
     0
 62
     2
  6
AUSGEZOGEN
370
    -3
390
C8935
  0
LAYER
  5
C645C
330
C642E
100
AcDbSymbolTableRecord
100
AcDbLayerTableRecord
  2
035
 70
     0
 62
     3
  6
AUSGEZOGEN
370
    -3
390
C8935
  0
LAYER
  5
C645D
330
C642E
100
AcDbSymbolTableRecord
100
AcDbLayerTableRecord
  2
025
 70
     0
 62
     4
  6
AUSGEZOGEN
370
    -3
390
C8935
  0
LAYER
  5
C645E
330
C642E
100
AcDbSymbolTableRecord
100
AcDbLayerTableRecord
  2
ASHADE
 70
     0
 62
     7
  6
AUSGEZOGEN
370
    -3
390
C8935
  0
LAYER
  5
C6460
330
C642E
100
AcDbSymbolTableRecord
100
AcDbLayerTableRecord
  2
MITTE
 70
     0
 62
     4
  6
CENTER
370
    -3
390
C8935
  0
LAYER
  5
C6461
330
C642E
100
AcDbSymbolTableRecord
100
AcDbLayerTableRecord
  2
BEM1
 70
     0
 62
     4
  6
AUSGEZOGEN
370
    -3
390
C8935
  0
LAYER
  5
C6462
330
C642E
100
AcDbSymbolTableRecord
100
AcDbLayerTableRecord
  2
RAHMEN
 70
     0
 62
     2
  6
AUSGEZOGEN
370
    -3
390
C8935
  0
LAYER
  5
C889D
330
C642E
100
AcDbSymbolTableRecord
100
AcDbLayerTableRecord
  2
SCHRAFFIERT
 70
     0
 62
     4
  6
AUSGEZOGEN
370
    -3
390
C8935
  0
ENDTAB
  0
TABLE
  2
STYLE
  5
C642F
330
0
100
AcDbSymbolTable
 70
     4
  0
STYLE
  5
C643B
330
C642F
100
AcDbSymbolTableRecord
100
AcDbTextStyleTableRecord
  2
STANDARD
 70
     0
 40
0.0
 41
0.7
 50
15.0
 71
     0
 42
3.5
  3
txt
  4

  0
STYLE
  5
C6454
330
C642F
100
AcDbSymbolTableRecord
100
AcDbTextStyleTableRecord
  2
HELV
 70
     0
 40
0.0
 41
0.8
 50
10.0
 71
     0
 42
2.0
  3
HELV.SHX
  4

  0
STYLE
  5
C6E0D
330
C642F
100
AcDbSymbolTableRecord
100
AcDbTextStyleTableRecord
  2
SCRIPTS
 70
     0
 40
0.0
 41
1.0
 50
0.0
 71
     0
 42
5.0
  3
scripts
  4

  0
STYLE
  5
C7698
330
C642F
100
AcDbSymbolTableRecord
100
AcDbTextStyleTableRecord
  2
ARIAL
 70
     0
 40
0.0
 41
1.0
 50
0.0
 71
     0
 42
3.5
  3
ARIALI.TTF
  4

1001
ACAD
1000
Arial
1071
 16777250
  0
ENDTAB
  0
TABLE
  2
VIEW
  5
C6432
330
0
100
AcDbSymbolTable
 70
     1
  0
VIEW
  5
C6456
330
C6432
100
AcDbSymbolTableRecord
100
AcDbViewTableRecord
  2
OLE1
 70
     0
 40
362.0433798543069
 10
262.0804529799769
 20
181.0216899271534
 41
524.1609059599539
 11
0.0
 21
0.0
 31
1.0
 12
0.0
 22
0.0
 32
0.0
 42
50.0
 43
0.0
 44
0.0
 50
0.0
 71
     0
281
     0
 72
     0
  0
ENDTAB
  0
TABLE
  2
UCS
  5
C6433
330
0
100
AcDbSymbolTable
 70
     0
  0
ENDTAB
  0
TABLE
  2
APPID
  5
C6435
330
0
100
AcDbSymbolTable
 70
     2
  0
APPID
  5
C643C
330
C6435
100
AcDbSymbolTableRecord
100
AcDbRegAppTableRecord
  2
ACAD
 70
     0
  0
APPID
  5
C6459
330
C6435
100
AcDbSymbolTableRecord
100
AcDbRegAppTableRecord
  2
AVE_RENDER
 70
     0
  0
ENDTAB
  0
TABLE
  2
DIMSTYLE
  5
C6436
330
0
100
AcDbSymbolTable
 70
     2
100
AcDbDimStyleTable
 71
     0
  0
DIMSTYLE
105
C646A
330
C6436
100
AcDbSymbolTableRecord
100
AcDbDimStyleTableRecord
  2
STANDARD
 70
     0
  4
"
 41
1.7
 42
0.5
 43
8.0
 44
0.4
 73
     0
 74
     0
 77
     1
140
1.7
141
5.0
143
0.039370079
147
0.15
171
     3
176
   256
177
   256
178
     3
271
     2
272
     2
274
     3
279
     2
340
C643B
  0
DIMSTYLE
105
C6476
330
C6436
100
AcDbSymbolTableRecord
100
AcDbDimStyleTableRecord
  2
NEUTRIK
 70
     0
  4
"
 41
3.5
 42
1.0
 43
8.0
 44
1.199999999999999
 73
     0
 74
     0
 77
     1
140
3.5
141
0.0
143
0.039370079
147
0.15
171
     3
174
     1
176
     4
177
     4
178
     3
271
     2
272
     2
274
     3
279
     2
340
C643B
  0
ENDTAB
  0
TABLE
  2
BLOCK_RECORD
  5
C642D
330
0
100
AcDbSymbolTable
 70
    11
  0
BLOCK_RECORD
  5
C6443
330
C642D
100
AcDbSymbolTableRecord
100
AcDbBlockTableRecord
  2
*MODEL_SPACE
340
C893C
  0
BLOCK_RECORD
  5
C6440
330
C642D
100
AcDbSymbolTableRecord
100
AcDbBlockTableRecord
  2
*PAPER_SPACE
340
C893D
  0
BLOCK_RECORD
  5
C6448
330
C642D
100
AcDbSymbolTableRecord
100
AcDbBlockTableRecord
  2
AVE_RENDER
340
0
102
{BLKREFS
331
30
331
31
331
32
331
5EDB
331
5EDC
331
5EDD
331
6C6B
331
6C6C
331
6C6D
331
CB16
331
CB17
331
CB18
331
D021
331
D022
331
D023
331
F83A
331
F83B
331
F83C
331
18666
331
18667
331
18668
331
1AE7F
331
1AE80
331
1AE81
331
2812E
331
2812F
331
28130
331
2A313
331
2A314
331
2A315
331
2E1B5
331
2E1B6
331
2E1B7
331
309CE
331
309CF
331
309D0
331
397FA
331
397FB
331
397FC
331
3C013
331
3C014
331
3C015
331
46838
331
46839
331
4683A
331
A6093
331
A6094
331
A6095
331
A6356
331
A6357
331
A6358
331
A635B
331
A635C
331
A635D
331
A63C1
331
A63C2
331
A63C3
331
A6463
331
A6464
331
A6465
331
A6797
331
A6798
331
A6799
331
A67C1
331
A67C2
331
A67C3
331
A682D
331
A682E
331
A682F
331
A6BA6
331
A6BA7
331
A6BA8
331
B323C
331
B323D
331
B323E
331
B35C3
331
B35C4
331
B35C5
331
B39E5
331
B39E6
331
B39E7
331
13B32
331
13B33
331
13B34
102
}
  0
BLOCK_RECORD
  5
C6449
330
C642D
100
AcDbSymbolTableRecord
100
AcDbBlockTableRecord
  2
NT_1
340
0
102
{BLKREFS
331
36
331
5EDE
331
6C71
331
CB19
331
D027
331
F840
331
1866C
331
1AE85
331
28134
331
2A319
331
2E1BB
331
309D4
331
39800
331
3C019
331
4683E
331
A6096
331
A6359
331
A635E
331
A63C4
331
A6466
331
A679A
331
A67C4
331
A6830
331
A6BAC
331
B323F
331
B35C6
331
B39EB
331
13B38
102
}
  0
BLOCK_RECORD
  5
C644A
330
C642D
100
AcDbSymbolTableRecord
100
AcDbBlockTableRecord
  2
ACAD
340
0
102
{BLKREFS
331
13B62
331
1F1A7
331
2BC33
331
2C19F
331
34CF6
331
4033B
331
49CC2
331
A627D
331
A635A
331
A6366
331
A63F3
331
A6652
331
A67B9
331
A67CC
331
A6AAF
331
AA030
331
B3525
331
B38AC
331
B6E6F
102
}
  0
BLOCK_RECORD
  5
C6BAB
330
C642D
100
AcDbSymbolTableRecord
100
AcDbBlockTableRecord
  2
ZKOPFC
340
0
  0
BLOCK_RECORD
  5
C87A7
330
C642D
100
AcDbSymbolTableRecord
100
AcDbBlockTableRecord
  2
A$C694C5F03
340
0
102
{BLKREFS
331
C87B0
331
C87BA
102
}
  0
BLOCK_RECORD
  5
C87B6
330
C642D
100
AcDbSymbolTableRecord
100
AcDbBlockTableRecord
  2
A$C433B085C
340
0
  0
BLOCK_RECORD
  5
C87C3
330
C642D
100
AcDbSymbolTableRecord
100
AcDbBlockTableRecord
  2
ZKOPF-REAN
340
0
102
{BLKREFS
331
C8902
331
C889F
331
C88D1
102
}
  0
BLOCK_RECORD
  5
C8860
330
C642D
100
AcDbSymbolTableRecord
100
AcDbBlockTableRecord
  2
A$C36291E6D
340
0
102
{BLKREFS
331
C889A
102
}
  0
BLOCK_RECORD
  5
C8899
330
C642D
100
AcDbSymbolTableRecord
100
AcDbBlockTableRecord
  2
A$C2F3C3381
340
0
102
{BLKREFS
331
C88CD
102
}
  0
BLOCK_RECORD
  5
C889E
330
C642D
100
AcDbSymbolTableRecord
100
AcDbBlockTableRecord
  2
A$C28B10802
340
0
  0
BLOCK_RECORD
  5
C88D0
330
C642D
100
AcDbSymbolTableRecord
100
AcDbBlockTableRecord
  2
A$C2F4C26AB
340
0
  0
ENDTAB
  0
ENDSEC
  0
SECTION
  2
BLOCKS
  0
BLOCK
  5
C6466
330
C6443
100
AcDbEntity
  8
0
100
AcDbBlockBegin
  2
*MODEL_SPACE
 70
     0
 10
0.0
 20
0.0
 30
0.0
  3
*MODEL_SPACE
  1

  0
ENDBLK
  5
C6467
330
C6443
100
AcDbEntity
  8
0
100
AcDbBlockEnd
  0
BLOCK
  5
C6464
330
C6440
100
AcDbEntity
 67
     1
  8
0
100
AcDbBlockBegin
  2
*PAPER_SPACE
 70
     0
 10
0.0
 20
0.0
 30
0.0
  3
*PAPER_SPACE
  1

  0
ENDBLK
  5
C6465
330
C6440
100
AcDbEntity
 67
     1
  8
0
100
AcDbBlockEnd
  0
BLOCK
  5
2E
330
C6448
100
AcDbEntity
  8
0
100
AcDbBlockBegin
  2
AVE_RENDER
 70
     0
 10
0.0
 20
0.0
 30
0.0
  3
AVE_RENDER
  1
AVE_RENDER
  0
ENDBLK
  5
2F
330
C6448
100
AcDbEntity
  8
0
100
AcDbBlockEnd
  0
BLOCK
  5
34
330
C6449
100
AcDbEntity
  8
0
100
AcDbBlockBegin
  2
NT_1
 70
     0
 10
0.0
 20
0.0
 30
0.0
  3
NT_1
  1

  0
ENDBLK
  5
35
330
C6449
100
AcDbEntity
  8
0
100
AcDbBlockEnd
  0
BLOCK
  5
13B01
330
C644A
100
AcDbEntity
  8
0
100
AcDbBlockBegin
  2
ACAD
 70
     0
 10
0.0
 20
0.0
 30
0.0
  3
ACAD
  1

  0
INSERT
  5
13B32
330
C644A
100
AcDbEntity
  8
ASHADE
 62
     1
100
AcDbBlockReference
  2
AVE_RENDER
 10
0.0
 20
0.0
 30
0.0
1001
AVE_RENDER
1002
{
1070
     2
1000
Pref
1070
    40
1070
    20
1070
     1
1070
     0
1000

1070
    10
1070
     0
1070
    30
1040
1.0
1070
     1
1040
0.3
1040
0.7
1040
0.0
1040
10.0
1010
-1.0
1020
-1.0
1030
-1.0
1040
0.3
1070
    49
1002
}
  0
INSERT
  5
13B33
330
C644A
100
AcDbEntity
  8
ASHADE
 62
     3
100
AcDbBlockReference
  2
AVE_RENDER
 10
0.0
 20
0.0
 30
0.0
1001
AVE_RENDER
1002
{
1070
     0
1000
Full Opt
1070
     0
1070
     1
1070
     1
1070
     1
1070
     0
1070
     0
1070
     0
1070
     1
1070
     1
1040
0.0001
1040
0.0001
1002
}
  0
INSERT
  5
13B34
330
C644A
100
AcDbEntity
  8
ASHADE
 62
     4
100
AcDbBlockReference
  2
AVE_RENDER
 10
0.0
 20
0.0
 30
0.0
1001
AVE_RENDER
1002
{
1070
     0
1000
Quick Opt
1070
     0
1070
     1
1070
     1
1070
     1
1070
     1
1070
     0
1070
     1
1002
}
  0
INSERT
  5
13B38
330
C644A
100
AcDbEntity
  8
05
100
AcDbBlockReference
  2
NT_1
 10
98.70934145934439
 20
147.8406513925157
 30
0.0
 41
32.61699988186843
 42
-6.863009327815802
 43
32.61699988186843
  0
ENDBLK
  5
13B61
330
C644A
100
AcDbEntity
  8
0
100
AcDbBlockEnd
  0
BLOCK
  5
C6DE4
330
C6BAB
100
AcDbEntity
  8
0
100
AcDbBlockBegin
  2
ZKOPFC
 70
     2
 10
0.0
 20
0.0
 30
0.0
  3
ZKOPFC
  1

  0
ATTDEF
  5
C6BAC
330
C6BAB
100
AcDbEntity
  8
0
 62
     4
100
AcDbText
 10
-13.32142857142857
 20
37.0
 30
0.0
 40
2.5
  1
Dobler
  7
SCRIPTS
 72
     1
 11
-8.5
 21
37.0
 31
0.0
100
AcDbAttributeDefinition
  3
Name des Konstrukteurs ?
  2
NAME
 70
     0
  0
LWPOLYLINE
  5
C6BAD
330
C6BAB
100
AcDbEntity
  8
0
 62
     2
100
AcDbPolyline
 90
        2
 70
     0
 43
0.0
 10
-51.0
 20
0.0
 10
-51.0
 20
46.0
  0
LWPOLYLINE
  5
C6BAE
330
C6BAB
100
AcDbEntity
  8
0
 62
     2
100
AcDbPolyline
 90
        2
 70
     0
 43
0.0
 10
-17.0
 20
9.0
 10
-17.0
 20
46.0
  0
LWPOLYLINE
  5
C6BAF
330
C6BAB
100
AcDbEntity
  8
0
 62
     2
100
AcDbPolyline
 90
        2
 70
     0
 43
0.0
 10
-32.0
 20
26.0
 10
-32.0
 20
46.0
  0
LWPOLYLINE
  5
C6BB0
330
C6BAB
100
AcDbEntity
  8
0
 62
     2
100
AcDbPolyline
 90
        2
 70
     0
 43
0.0
 10
-133.0
 20
41.0
 10
-92.0
 20
41.0
  0
LWPOLYLINE
  5
C6BB1
330
C6BAB
100
AcDbEntity
  8
0
 62
     2
100
AcDbPolyline
 90
        2
 70
     0
 43
0.0
 10
-145.0
 20
0.0
 10
-145.0
 20
46.0
  0
LWPOLYLINE
  5
C6BB2
330
C6BAB
100
AcDbEntity
  8
0
 62
     2
100
AcDbPolyline
 90
        2
 70
     0
 43
0.0
 10
-158.0
 20
0.0
 10
-158.0
 20
46.0
  0
LINE
  5
C6BB3
330
C6BAB
100
AcDbEntity
  8
0
 62
     2
100
AcDbLine
 10
-200.0
 20
6.0
 30
0.0
 11
-133.0
 21
6.0
 31
0.0
  0
LWPOLYLINE
  5
C6BB4
330
C6BAB
100
AcDbEntity
  8
0
 62
     4
100
AcDbPolyline
 90
        2
 70
     0
 43
0.0
 10
-200.0
 20
11.0
 10
-133.0
 20
11.0
  0
LWPOLYLINE
  5
C6BB5
330
C6BAB
100
AcDbEntity
  8
0
 62
     4
100
AcDbPolyline
 90
        2
 70
     0
 43
0.0
 10
-200.0
 20
16.0
 10
-133.0
 20
16.0
  0
LWPOLYLINE
  5
C6BB6
330
C6BAB
100
AcDbEntity
  8
0
 62
     4
100
AcDbPolyline
 90
        2
 70
     0
 43
0.0
 10
-200.0
 20
21.0
 10
-133.0
 20
21.0
  0
LWPOLYLINE
  5
C6BB7
330
C6BAB
100
AcDbEntity
  8
0
 62
     4
100
AcDbPolyline
 90
        2
 70
     0
 43
0.0
 10
-200.0
 20
26.0
 10
-133.0
 20
26.0
  0
LWPOLYLINE
  5
C6BB8
330
C6BAB
100
AcDbEntity
  8
0
 62
     4
100
AcDbPolyline
 90
        2
 70
     0
 43
0.0
 10
-200.0
 20
31.0
 10
-133.0
 20
31.0
  0
LWPOLYLINE
  5
C6BB9
330
C6BAB
100
AcDbEntity
  8
0
 62
     4
100
AcDbPolyline
 90
        2
 70
     0
 43
0.0
 10
-200.0
 20
36.0
 10
-133.0
 20
36.0
  0
LWPOLYLINE
  5
C6BBA
330
C6BAB
100
AcDbEntity
  8
0
 62
     4
100
AcDbPolyline
 90
        2
 70
     0
 43
0.0
 10
-200.0
 20
41.0
 10
-133.0
 20
41.0
  0
TEXT
  5
C6BBB
330
C6BAB
100
AcDbEntity
  8
0
 62
     4
100
AcDbText
 10
-50.0
 20
6.0
 30
0.0
 40
1.5
  1
Zeichn. Nr.
 51
15.0
100
AcDbText
  0
TEXT
  5
C6BBC
330
C6BAB
100
AcDbEntity
  8
0
 62
     4
100
AcDbText
 10
-50.0
 20
23.0
 30
0.0
 40
1.5
  1
Ersetzt durch:         Blatt
 51
15.0
100
AcDbText
  0
TEXT
  5
C6BBD
330
C6BAB
100
AcDbEntity
  8
0
 62
     4
100
AcDbText
 10
-50.0
 20
38.0
 30
0.0
 40
1.5
  1
Gezeichnet
 51
15.0
100
AcDbText
  0
TEXT
  5
C6BBE
330
C6BAB
100
AcDbEntity
  8
0
 62
     4
100
AcDbText
 10
-50.0
 20
27.0
 30
0.0
 40
1.5
  1
Gesehen
 51
15.0
100
AcDbText
  0
TEXT
  5
C6BBF
330
C6BAB
100
AcDbEntity
  8
0
 62
     4
100
AcDbText
 10
-31.0
 20
42.0
 30
0.0
 40
1.5
  1
Datum     Name
 51
15.0
100
AcDbText
  0
TEXT
  5
C6BC0
330
C6BAB
100
AcDbEntity
  8
0
 62
     4
100
AcDbText
 10
-91.0
 20
42.0
 30
0.0
 40
1.5
  1
Werkstoff:      Massstab:
 51
15.0
100
AcDbText
  0
TEXT
  5
C6BC1
330
C6BAB
100
AcDbEntity
  8
0
 62
     4
100
AcDbText
 10
-132.0
 20
23.0
 30
0.0
 40
1.5
  1
Benennung:
 51
15.0
100
AcDbText
  0
LINE
  5
C6BC2
330
C6BAB
100
AcDbEntity
  8
0
 62
     2
100
AcDbLine
 10
-133.0
 20
33.0
 30
0.0
 11
-92.0
 21
33.0
 31
0.0
  0
TEXT
  5
C6BC3
330
C6BAB
100
AcDbEntity
  8
0
 62
     4
100
AcDbText
 10
-132.0
 20
39.0
 30
0.0
 40
1.5
  1
*)Lieferant darf ohne 
 51
15.0
100
AcDbText
  0
TEXT
  5
C6BC4
330
C6BAB
100
AcDbEntity
  8
0
 62
     4
100
AcDbText
 10
-132.0
 20
36.5
 30
0.0
 40
1.5
  1
 Ruecksprache nicht 
 51
15.0
100
AcDbText
  0
TEXT
  5
C6BC5
330
C6BAB
100
AcDbEntity
  8
0
 62
     4
100
AcDbText
 10
-132.0
 20
34.0
 30
0.0
 40
1.5
  1
 geaendert werden
 51
15.0
100
AcDbText
  0
TEXT
  5
C6BC6
330
C6BAB
100
AcDbEntity
  8
0
 62
     4
100
AcDbText
 10
-132.0
 20
30.0
 30
0.0
 40
1.5
  1
Zeichnung urheberrechtlich
 51
15.0
100
AcDbText
  0
TEXT
  5
C6BC7
330
C6BAB
100
AcDbEntity
  8
0
 62
     4
100
AcDbText
 10
-132.0
 20
27.5
 30
0.0
 40
1.5
  1
geschuetzt (DIN 34) (C)
 51
15.0
100
AcDbText
  0
TEXT
  5
C6BC8
330
C6BAB
100
AcDbEntity
  8
0
 62
     4
100
AcDbText
 10
-50.0
 20
32.0
 30
0.0
 40
1.5
  1
Geprueft
 51
15.0
100
AcDbText
  0
TEXT
  5
C6BC9
330
C6BAB
100
AcDbEntity
  8
0
 62
     4
100
AcDbText
 10
-50.0
 20
15.0
 30
0.0
 40
1.5
  1
Ersatz fuer:           von  Blatt
 51
15.0
100
AcDbText
  0
TEXT
  5
C6BCA
330
C6BAB
100
AcDbEntity
  8
0
 62
     4
100
AcDbText
 10
-197.0
 20
1.0
 30
0.0
 40
1.5
  1
Ind.  Aenderung             Datum    Name
 51
15.0
100
AcDbText
  0
ATTDEF
  5
C6BCB
330
C6BAB
100
AcDbEntity
  8
0
 62
     4
100
AcDbText
 10
-28.875
 20
37.0
 30
0.0
 40
2.5
  1
01.10.91
 41
0.7
 51
15.0
 72
     1
 11
-24.5
 21
37.0
 31
0.0
100
AcDbAttributeDefinition
  3
Datum der Zeichnung ?
  2
DATE
 70
     0
  0
ATTDEF
  5
C6BCC
330
C6BAB
100
AcDbEntity
  8
0
 62
     4
100
AcDbText
 10
-80.5
 20
36.0
 30
0.0
 40
2.5
  1

 41
0.7
 51
15.0
 72
     1
 11
-80.5
 21
36.0
 31
0.0
100
AcDbAttributeDefinition
  3
Aus welchem Werkstoff ?
  2
WERKSTOFF
 70
     0
  0
ATTDEF
  5
C6BCD
330
C6BAB
100
AcDbEntity
  8
0
 62
     2
100
AcDbText
 10
-92.0
 20
12.5
 30
0.0
 40
5.0
  1

 41
0.7
 51
15.0
 72
     1
 11
-92.0
 21
12.5
 31
0.0
100
AcDbAttributeDefinition
  3
Zeichnungsname ?
  2
BENENNUNG
 70
     0
  0
ATTDEF
  5
C6BCE
330
C6BAB
100
AcDbEntity
  8
0
 62
     3
100
AcDbText
 10
-90.26545660187862
 20
21.08219145052693
 30
0.0
 40
3.5
  1
()
 41
0.7
 51
15.0
 72
     1
 11
-89.04045660187861
 21
21.08219145052693
 31
0.0
100
AcDbAttributeDefinition
  3
Zu welchem Produkt ?
  2
TEIL
 70
     0
  0
ATTDEF
  5
C6BCF
330
C6BAB
100
AcDbEntity
  8
0
 62
     3
100
AcDbText
 10
-20.55021908257641
 20
1.976541016537794
 30
0.0
 40
3.5
  1

 41
0.7
 51
15.0
 72
     1
 11
-20.55021908257641
 21
1.976541016537794
 31
0.0
100
AcDbAttributeDefinition
  3
Zeichnungsnummer ?
  2
NUMMER
 70
     0
  0
ATTDEF
  5
C6BD0
330
C6BAB
100
AcDbEntity
  8
0
 62
     2
100
AcDbText
 10
-63.4826716374761
 20
34.65605623293453
 30
0.0
 40
5.0
  1
5:1
 41
0.7
 51
15.0
 72
     1
 11
-60.56600497080944
 21
34.65605623293453
 31
0.0
100
AcDbAttributeDefinition
  3
Hauptmassstab:
  2
MASS
 70
     0
  0
ATTDEF
  5
C6BD1
330
C6BAB
100
AcDbEntity
  8
0
 62
     3
100
AcDbText
 10
-60.48070094598003
 20
28.2104505391753
 30
0.0
 40
3.5
  1

 41
0.7
 51
15.0
 72
     1
 11
-60.48070094598003
 21
28.2104505391753
 31
0.0
100
AcDbAttributeDefinition
  3
Nebenmassstab:
  2
MASS2
 70
     0
  0
ATTDEF
  5
C6BD2
330
C6BAB
100
AcDbEntity
  8
0
 62
     4
100
AcDbText
 10
-81.0
 20
29.0
 30
0.0
 40
2.5
  1

 41
0.7
 51
15.0
 72
     1
 11
-81.0
 21
29.0
 31
0.0
100
AcDbAttributeDefinition
  3
Werkstoffzusatz:
  2
TEIL
 70
     0
  0
ATTDEF
  5
C6BD3
330
C6BAB
100
AcDbEntity
  8
0
 62
     3
100
AcDbText
 10
-107.7114519405618
 20
59.00431874742944
 30
0.0
 40
3.5
  1
Freimasstoleranzen %%p0.1
 41
0.7
 51
15.0
100
AcDbAttributeDefinition
  3
Freimasstoleranzen:
  2
TOL
 70
     0
  0
ATTDEF
  5
C6BD4
330
C6BAB
100
AcDbEntity
  8
0
 62
     3
100
AcDbText
 10
-107.7114519405618
 20
54.00431874742944
 30
0.0
 40
3.5
  1
nicht bemasste Radien R=0.2
 41
0.7
 51
15.0
100
AcDbAttributeDefinition
  3
Nicht bemasste Radien:
  2
RADIEN
 70
     0
  0
ATTDEF
  5
C6BD5
330
C6BAB
100
AcDbEntity
  8
0
 62
     3
100
AcDbText
 10
-107.7114519405618
 20
49.00431874742944
 30
0.0
 40
3.5
  1
nicht bemasste Facetten 0.5 x 45%%D
 41
0.7
 51
15.0
100
AcDbAttributeDefinition
  3
nicht bemasste Facetten:
  2
FACETTE
 70
     0
  0
LWPOLYLINE
  5
C6BD6
330
C6BAB
100
AcDbEntity
  8
0
 62
     2
100
AcDbPolyline
 90
        2
 70
     0
 43
0.0
 10
-191.0
 20
0.0
 10
-191.0
 20
46.0
  0
LWPOLYLINE
  5
C6BD7
330
C6BAB
100
AcDbEntity
  8
0
 62
     2
100
AcDbPolyline
 90
        2
 70
     0
 43
0.0
 10
-133.0
 20
0.0
 10
-133.0
 20
46.0
  0
LWPOLYLINE
  5
C6BD8
330
C6BAB
100
AcDbEntity
  8
0
 62
     2
100
AcDbPolyline
 90
        2
 70
     0
 43
0.0
 10
-92.0
 20
26.0
 10
-92.0
 20
46.0
  0
LWPOLYLINE
  5
C6BD9
330
C6BAB
100
AcDbEntity
  8
0
 62
     2
100
AcDbPolyline
 90
        2
 70
     0
 43
0.0
 10
-69.0
 20
26.0
 10
-69.0
 20
46.0
  0
ATTDEF
  5
C6BDA
330
C6BAB
100
AcDbEntity
  8
0
 62
     4
100
AcDbText
 10
-197.1862672583826
 20
7.0
 30
0.0
 40
2.5
  1

 41
0.7
 51
15.0
100
AcDbAttributeDefinition
  3
Index1:
  2
INDEX1
 70
     0
  0
ATTDEF
  5
C6BDB
330
C6BAB
100
AcDbEntity
  8
0
 62
     4
100
AcDbText
 10
-190.3487426035503
 20
7.0
 30
0.0
 40
2.5
  1

 41
0.7
 51
15.0
100
AcDbAttributeDefinition
  3
Aenderung1:
  2
A1
 70
     0
  0
ATTDEF
  5
C6BDC
330
C6BAB
100
AcDbEntity
  8
0
 62
     4
100
AcDbText
 10
-157.3487426035503
 20
7.0
 30
0.0
 40
2.5
  1

 41
0.7
 51
15.0
100
AcDbAttributeDefinition
  3
Datum1:
  2
DATUM1
 70
     0
  0
ATTDEF
  5
C6BDD
330
C6BAB
100
AcDbEntity
  8
0
 62
     4
100
AcDbText
 10
-144.464990138067
 20
7.0
 30
0.0
 40
2.5
  1

 41
0.7
 51
15.0
100
AcDbAttributeDefinition
  3
Name1:
  2
NAME1
 70
     0
  0
ATTDEF
  5
C6BDE
330
C6BAB
100
AcDbEntity
  8
0
 62
     4
100
AcDbText
 10
-197.1862672583826
 20
12.0
 30
0.0
 40
2.5
  1

 41
0.7
 51
15.0
100
AcDbAttributeDefinition
  3
Index2:
  2
INDEX2
 70
     0
  0
ATTDEF
  5
C6BDF
330
C6BAB
100
AcDbEntity
  8
0
 62
     4
100
AcDbText
 10
-190.3487426035503
 20
12.0
 30
0.0
 40
2.5
  1

 41
0.7
 51
15.0
100
AcDbAttributeDefinition
  3
Aenderung2:
  2
A2
 70
     0
  0
ATTDEF
  5
C6BE0
330
C6BAB
100
AcDbEntity
  8
0
 62
     4
100
AcDbText
 10
-157.3487426035503
 20
12.0
 30
0.0
 40
2.5
  1

 41
0.7
 51
15.0
100
AcDbAttributeDefinition
  3
Datum2:
  2
DATUM2
 70
     0
  0
ATTDEF
  5
C6BE1
330
C6BAB
100
AcDbEntity
  8
0
 62
     4
100
AcDbText
 10
-144.464990138067
 20
12.0
 30
0.0
 40
2.5
  1

 41
0.7
 51
15.0
100
AcDbAttributeDefinition
  3
Name2
  2
NAME2
 70
     0
  0
ATTDEF
  5
C6BE2
330
C6BAB
100
AcDbEntity
  8
0
 62
     4
100
AcDbText
 10
-197.1862672583826
 20
17.0
 30
0.0
 40
2.5
  1

 41
0.7
 51
15.0
100
AcDbAttributeDefinition
  3
Index3:
  2
INDEX3
 70
     0
  0
ATTDEF
  5
C6BE3
330
C6BAB
100
AcDbEntity
  8
0
 62
     4
100
AcDbText
 10
-190.3487426035503
 20
17.0
 30
0.0
 40
2.5
  1

 41
0.7
 51
15.0
100
AcDbAttributeDefinition
  3
Aenderung3
  2
A3
 70
     0
  0
ATTDEF
  5
C6BE4
330
C6BAB
100
AcDbEntity
  8
0
 62
     4
100
AcDbText
 10
-157.3487426035503
 20
17.0
 30
0.0
 40
2.5
  1

 41
0.7
 51
15.0
100
AcDbAttributeDefinition
  3
Datum3:
  2
DATUM3
 70
     0
  0
ATTDEF
  5
C6BE5
330
C6BAB
100
AcDbEntity
  8
0
 62
     4
100
AcDbText
 10
-144.464990138067
 20
17.0
 30
0.0
 40
2.5
  1

 41
0.7
 51
15.0
100
AcDbAttributeDefinition
  3
Name3:
  2
NAME3
 70
     0
  0
ATTDEF
  5
C6BE6
330
C6BAB
100
AcDbEntity
  8
0
 62
     4
100
AcDbText
 10
-197.1862672583826
 20
22.0
 30
0.0
 40
2.5
  1

 41
0.7
 51
15.0
100
AcDbAttributeDefinition
  3
Index4:
  2
INDEX4
 70
     0
  0
ATTDEF
  5
C6BE7
330
C6BAB
100
AcDbEntity
  8
0
 62
     4
100
AcDbText
 10
-190.3487426035503
 20
22.0
 30
0.0
 40
2.5
  1

 41
0.7
 51
15.0
100
AcDbAttributeDefinition
  3
Aenderung4:
  2
A4
 70
     0
  0
ATTDEF
  5
C6BE8
330
C6BAB
100
AcDbEntity
  8
0
 62
     4
100
AcDbText
 10
-157.3487426035503
 20
22.0
 30
0.0
 40
2.5
  1

 41
0.7
 51
15.0
100
AcDbAttributeDefinition
  3
Datum4:
  2
DATUM4
 70
     0
  0
ATTDEF
  5
C6BE9
330
C6BAB
100
AcDbEntity
  8
0
 62
     4
100
AcDbText
 10
-144.464990138067
 20
22.0
 30
0.0
 40
2.5
  1

 41
0.7
 51
15.0
100
AcDbAttributeDefinition
  3
Name4:
  2
NAME4
 70
     0
  0
ATTDEF
  5
C6BEA
330
C6BAB
100
AcDbEntity
  8
0
 62
     4
100
AcDbText
 10
-197.1862672583826
 20
27.0
 30
0.0
 40
2.5
  1

 41
0.7
 51
15.0
100
AcDbAttributeDefinition
  3
Index5:
  2
INDEX5
 70
     0
  0
ATTDEF
  5
C6BEB
330
C6BAB
100
AcDbEntity
  8
0
 62
     4
100
AcDbText
 10
-190.3487426035503
 20
27.0
 30
0.0
 40
2.5
  1

 41
0.7
 51
15.0
100
AcDbAttributeDefinition
  3
Aenderung5:
  2
A5
 70
     0
  0
ATTDEF
  5
C6BEC
330
C6BAB
100
AcDbEntity
  8
0
 62
     4
100
AcDbText
 10
-157.3487426035503
 20
27.0
 30
0.0
 40
2.5
  1

 41
0.7
 51
15.0
100
AcDbAttributeDefinition
  3
Datum5:
  2
DATUM5
 70
     0
  0
ATTDEF
  5
C6BED
330
C6BAB
100
AcDbEntity
  8
0
 62
     4
100
AcDbText
 10
-144.464990138067
 20
27.0
 30
0.0
 40
2.5
  1

 41
0.7
 51
15.0
100
AcDbAttributeDefinition
  3
Name5
  2
NAME5
 70
     0
  0
ATTDEF
  5
C6BEE
330
C6BAB
100
AcDbEntity
  8
0
 62
     4
100
AcDbText
 10
-197.1862672583826
 20
32.0
 30
0.0
 40
2.5
  1

 41
0.7
 51
15.0
100
AcDbAttributeDefinition
  3
Index6:
  2
INDEX6
 70
     0
  0
ATTDEF
  5
C6BEF
330
C6BAB
100
AcDbEntity
  8
0
 62
     4
100
AcDbText
 10
-190.3487426035503
 20
32.0
 30
0.0
 40
2.5
  1

 41
0.7
 51
15.0
100
AcDbAttributeDefinition
  3
Aenderung6:
  2
A6
 70
     0
  0
ATTDEF
  5
C6BF0
330
C6BAB
100
AcDbEntity
  8
0
 62
     4
100
AcDbText
 10
-157.3487426035503
 20
32.0
 30
0.0
 40
2.5
  1

 41
0.7
 51
15.0
100
AcDbAttributeDefinition
  3
Datum6:
  2
DATUM6
 70
     0
  0
ATTDEF
  5
C6BF1
330
C6BAB
100
AcDbEntity
  8
0
 62
     4
100
AcDbText
 10
-144.464990138067
 20
32.0
 30
0.0
 40
2.5
  1

 41
0.7
 51
15.0
100
AcDbAttributeDefinition
  3
Name6:
  2
NAME6
 70
     0
  0
ATTDEF
  5
C6BF2
330
C6BAB
100
AcDbEntity
  8
0
 62
     4
100
AcDbText
 10
-197.1862672583826
 20
37.0
 30
0.0
 40
2.5
  1

 41
0.7
 51
15.0
100
AcDbAttributeDefinition
  3
Index7:
  2
INDEX7
 70
     0
  0
ATTDEF
  5
C6BF3
330
C6BAB
100
AcDbEntity
  8
0
 62
     4
100
AcDbText
 10
-190.3487426035503
 20
37.0
 30
0.0
 40
2.5
  1

 41
0.7
 51
15.0
100
AcDbAttributeDefinition
  3
Aenderung7:
  2
A7
 70
     0
  0
ATTDEF
  5
C6BF4
330
C6BAB
100
AcDbEntity
  8
0
 62
     4
100
AcDbText
 10
-157.3487426035503
 20
37.0
 30
0.0
 40
2.5
  1

 41
0.7
 51
15.0
100
AcDbAttributeDefinition
  3
Datum7:
  2
DATUM7
 70
     0
  0
ATTDEF
  5
C6BF5
330
C6BAB
100
AcDbEntity
  8
0
 62
     4
100
AcDbText
 10
-144.464990138067
 20
37.0
 30
0.0
 40
2.5
  1

 41
0.7
 51
15.0
100
AcDbAttributeDefinition
  3
Name7:
  2
NAME7
 70
     0
  0
ATTDEF
  5
C6BF6
330
C6BAB
100
AcDbEntity
  8
0
 62
     4
100
AcDbText
 10
-197.1862672583826
 20
42.0
 30
0.0
 40
2.5
  1

 41
0.7
 51
15.0
100
AcDbAttributeDefinition
  3
Index8:
  2
INDEX8
 70
     0
  0
ATTDEF
  5
C6BF7
330
C6BAB
100
AcDbEntity
  8
0
 62
     4
100
AcDbText
 10
-190.3487426035503
 20
42.0
 30
0.0
 40
2.5
  1

 41
0.7
 51
15.0
100
AcDbAttributeDefinition
  3
Aenderung8:
  2
A8
 70
     0
  0
ATTDEF
  5
C6BF8
330
C6BAB
100
AcDbEntity
  8
0
 62
     4
100
AcDbText
 10
-157.3487426035503
 20
42.0
 30
0.0
 40
2.5
  1

 41
0.7
 51
15.0
100
AcDbAttributeDefinition
  3
Datum8:
  2
DATUM8
 70
     0
  0
ATTDEF
  5
C6BF9
330
C6BAB
100
AcDbEntity
  8
0
 62
     4
100
AcDbText
 10
-144.464990138067
 20
42.0
 30
0.0
 40
2.5
  1

 41
0.7
 51
15.0
100
AcDbAttributeDefinition
  3
Name8:
  2
NAME8
 70
     0
  0
LWPOLYLINE
  5
C6BFA
330
C6BAB
100
AcDbEntity
  8
0
 62
     2
100
AcDbPolyline
 90
        2
 70
     0
 43
0.0
 10
0.0
 20
0.0
 10
0.0
 20
46.0
  0
LWPOLYLINE
  5
C6BFB
330
C6BAB
100
AcDbEntity
  8
0
 62
     2
100
AcDbPolyline
 90
        2
 70
     0
 43
0.0
 10
-200.0
 20
46.0
 10
-200.0
 20
0.0
  0
LWPOLYLINE
  5
C6BFC
330
C6BAB
100
AcDbEntity
  8
0
 62
     2
100
AcDbPolyline
 90
        2
 70
     0
 43
0.0
 10
0.0
 20
9.0
 10
-133.0
 20
9.0
  0
LWPOLYLINE
  5
C6BFD
330
C6BAB
100
AcDbEntity
  8
0
 62
     2
100
AcDbPolyline
 90
        2
 70
     0
 43
0.0
 10
0.0
 20
18.0
 10
-51.0
 20
18.0
  0
LWPOLYLINE
  5
C6BFE
330
C6BAB
100
AcDbEntity
  8
0
 62
     2
100
AcDbPolyline
 90
        2
 70
     0
 43
0.0
 10
0.0
 20
26.0
 10
-133.0
 20
26.0
  0
LWPOLYLINE
  5
C6BFF
330
C6BAB
100
AcDbEntity
  8
0
 62
     2
100
AcDbPolyline
 90
        2
 70
     0
 43
0.0
 10
0.0
 20
31.0
 10
-51.0
 20
31.0
  0
LWPOLYLINE
  5
C6C00
330
C6BAB
100
AcDbEntity
  8
0
 62
     2
100
AcDbPolyline
 90
        2
 70
     0
 43
0.0
 10
0.0
 20
36.0
 10
-51.0
 20
36.0
  0
LWPOLYLINE
  5
C6C01
330
C6BAB
100
AcDbEntity
  8
0
 62
     2
100
AcDbPolyline
 90
        2
 70
     0
 43
0.0
 10
0.0
 20
41.0
 10
-51.0
 20
41.0
  0
LWPOLYLINE
  5
C6C02
330
C6BAB
100
AcDbEntity
  8
0
 62
     2
100
AcDbPolyline
 90
        2
 70
     0
 43
0.0
 10
0.0
 20
46.0
 10
-200.0
 20
46.0
  0
TEXT
  5
C6C03
330
C6BAB
100
AcDbEntity
  8
035
100
AcDbText
 10
517.6531578478322
 20
512.8485899902175
 30
0.0
 40
3.5
  1
  
 41
0.7
 51
15.0
100
AcDbText
  0
LINE
  5
C6C04
330
C6BAB
100
AcDbEntity
  8
035
100
AcDbLine
 10
-128.7555683204862
 20
3.208952224845873
 30
0.0
 11
-126.7061695550862
 21
3.208952224845873
 31
0.0
  0
LINE
  5
C6C05
330
C6BAB
100
AcDbEntity
  8
035
100
AcDbLine
 10
-128.094709021699
 20
6.189895883609617
 30
0.0
 11
-125.6726922989535
 21
6.189895883609617
 31
0.0
  0
LINE
  5
C6C06
330
C6BAB
100
AcDbEntity
  8
035
100
AcDbLine
 10
-128.7555683204862
 20
3.208952224845873
 30
0.0
 11
-128.094709021699
 21
6.189895883609617
 31
0.0
  0
LINE
  5
C6C07
330
C6BAB
100
AcDbEntity
  8
035
100
AcDbLine
 10
-126.7061695550862
 20
3.208952224845873
 30
0.0
 11
-126.3344361995184
 21
4.885733032900427
 31
0.0
  0
LINE
  5
C6C08
330
C6BAB
100
AcDbEntity
  8
035
100
AcDbLine
 10
-122.1415995776042
 20
3.208952224845873
 30
0.0
 11
-121.480740278817
 21
6.189895883609617
 31
0.0
  0
LINE
  5
C6C09
330
C6BAB
100
AcDbEntity
  8
035
100
AcDbLine
 10
-123.8192649874365
 20
4.885733032900461
 30
0.0
 11
-123.530139044217
 21
6.189895883609617
 31
0.0
  0
LINE
  5
C6C0A
330
C6BAB
100
AcDbEntity
  8
035
100
AcDbLine
 10
-126.3344361995184
 20
4.885733032900461
 30
0.0
 11
-124.4704618110134
 21
3.208952224845873
 31
0.0
  0
LINE
  5
C6C0B
330
C6BAB
100
AcDbEntity
  8
035
100
AcDbLine
 10
-125.6726922989535
 20
6.189895883609617
 30
0.0
 11
-123.8192649874365
 21
4.885733032900461
 31
0.0
  0
LINE
  5
C6C0C
330
C6BAB
100
AcDbEntity
  8
035
100
AcDbLine
 10
-123.530139044217
 20
6.189895883609617
 30
0.0
 11
-121.480740278817
 21
6.189895883609617
 31
0.0
  0
LINE
  5
C6C0D
330
C6BAB
100
AcDbEntity
  8
035
100
AcDbLine
 10
-124.4704618110134
 20
3.208952224845873
 30
0.0
 11
-122.1415995776042
 21
3.208952224845873
 31
0.0
  0
LINE
  5
C6C0E
330
C6BAB
100
AcDbEntity
  8
035
100
AcDbLine
 10
-121.1169001949041
 20
3.208952224845873
 30
0.0
 11
-120.4560408961169
 21
6.189895883609617
 31
0.0
  0
LINE
  5
C6C0F
330
C6BAB
100
AcDbEntity
  8
035
100
AcDbLine
 10
-118.9504523853178
 20
3.736926343802164
 30
0.0
 11
-118.7756437825657
 21
4.525436994749602
 31
0.0
  0
LINE
  5
C6C10
330
C6BAB
100
AcDbEntity
  8
035
100
AcDbLine
 10
-115.5152366557929
 20
4.525436994749602
 30
0.0
 11
-115.4380926508824
 21
4.873411113705938
 31
0.0
  0
LINE
  5
C6C11
330
C6BAB
100
AcDbEntity
  8
035
100
AcDbLine
 10
-115.5276308347222
 20
3.208952224845873
 30
0.0
 11
-115.410581790536
 21
3.736926343802164
 31
0.0
  0
LINE
  5
C6C12
330
C6BAB
100
AcDbEntity
  8
035
100
AcDbLine
 10
-121.1169001949041
 20
3.208952224845873
 30
0.0
 11
-115.5276308347222
 21
3.208952224845873
 31
0.0
  0
LINE
  5
C6C13
330
C6BAB
100
AcDbEntity
  8
035
100
AcDbLine
 10
-120.4560408961169
 20
6.189895883609617
 30
0.0
 11
-114.8667715359349
 21
6.189895883609617
 31
0.0
  0
LINE
  5
C6C14
330
C6BAB
100
AcDbEntity
  8
035
100
AcDbLine
 10
-118.6984997776553
 20
4.873411113705938
 30
0.0
 11
-118.523691174903
 21
5.661921764653206
 31
0.0
  0
LINE
  5
C6C15
330
C6BAB
100
AcDbEntity
  8
035
100
AcDbLine
 10
-114.9838205801212
 20
5.661921764653223
 30
0.0
 11
-114.8667715359349
 21
6.189895883609617
 31
0.0
  0
LINE
  5
C6C16
330
C6BAB
100
AcDbEntity
  8
035
100
AcDbLine
 10
-114.3942210299523
 20
4.119505997316909
 30
0.0
 11
-113.9352266425712
 21
6.189895883609617
 31
0.0
  0
LINE
  5
C6C17
330
C6BAB
100
AcDbEntity
  8
035
100
AcDbLine
 10
-112.2931360945968
 20
4.375928445997121
 30
0.0
 11
-111.8909891954701
 21
6.189895883609617
 31
0.0
  0
LINE
  5
C6C18
330
C6BAB
100
AcDbEntity
  8
035
100
AcDbLine
 10
-110.0519479814474
 20
4.279274549467478
 30
0.0
 11
-109.6283734293362
 21
6.189895883609617
 31
0.0
  0
LINE
  5
C6C19
330
C6BAB
100
AcDbEntity
  8
035
100
AcDbLine
 10
-108.0752437571043
 20
3.974728888999871
 30
0.0
 11
-107.5841530575365
 21
6.189895883609617
 31
0.0
  0
LINE
  5
C6C1A
330
C6BAB
100
AcDbEntity
  8
035
100
AcDbLine
 10
-113.9352266425712
 20
6.189895883609617
 30
0.0
 11
-111.8909891954701
 21
6.189895883609617
 31
0.0
  0
LWPOLYLINE
  5
C6C1B
330
C6BAB
100
AcDbEntity
  8
035
100
AcDbPolyline
 90
        2
 70
     0
 43
0.0
 10
-114.3942210299521
 20
4.119505997316909
 42
0.0533041479355404
 10
-114.4019361649487
 20
4.047342628873141
 42
0.2429550060825716
  0
LWPOLYLINE
  5
C6C1C
330
C6BAB
100
AcDbEntity
  8
035
100
AcDbPolyline
 90
        9
 70
     0
 43
0.0
 10
-114.4019361649487
 20
4.047342628873141
 42
0.2429550060825716
 10
-114.2582140839238
 20
3.76902241533011
 42
0.0830391319818528
 10
-113.4742693451744
 20
3.388640917796024
 42
0.0412286692587949
 10
-112.5352359291848
 20
3.194727482262848
 42
0.0303168106148105
 10
-111.2346835275122
 20
3.115797735509434
 42
0.0303168106148056
 10
-109.9341311258396
 20
3.194727482262848
 42
0.0412286692587985
 10
-108.99509770985
 20
3.388640917796024
 42
0.0830391319818556
 10
-108.2111529711005
 20
3.76902241533011
 42
0.1868768484129985
 10
-108.0752437571044
 20
3.974728888999871
 42
0.2429550060826199
  0
LWPOLYLINE
  5
C6C1D
330
C6BAB
100
AcDbEntity
  8
035
100
AcDbPolyline
 90
        9
 70
     0
 43
0.0
 10
-112.2988649389131
 20
4.326806096882253
 42
0.1991045112703633
 10
-112.2362306163629
 20
4.175751421199734
 42
0.0984366758760737
 10
-111.9690267473226
 20
3.997455241343627
 42
0.0556835448182592
 10
-111.6314397691282
 20
3.90004268846201
 42
0.0424435076919051
 10
-111.172726911796
 20
3.861033650200451
 42
0.0424435076918822
 10
-110.7140140544636
 20
3.900042688461942
 42
0.0556835448182298
 10
-110.3764270762692
 20
3.997455241343627
 42
0.0984366758760371
 10
-110.109223207229
 20
4.175751421199632
 42
0.1413271427614488
 10
-110.0519479814474
 20
4.279274549467478
 42
0.1991045112703793
  0
LWPOLYLINE
  5
C6C1E
330
C6BAB
100
AcDbEntity
  8
035
100
AcDbPolyline
 90
        2
 70
     0
 43
0.0
 10
-112.2931360945968
 20
4.375928445997121
 42
0.0581150540440913
 10
-112.2988649389131
 20
4.326806096882253
 42
0.1991045112703633
  0
LINE
  5
C6C1F
330
C6BAB
100
AcDbEntity
  8
035
100
AcDbLine
 10
-109.6283734293362
 20
6.189895883609617
 30
0.0
 11
-107.5841530575366
 21
6.189895883609617
 31
0.0
  0
LINE
  5
C6C20
330
C6BAB
100
AcDbEntity
  8
035
100
AcDbLine
 10
-107.2070092563769
 20
5.444659968918617
 30
0.0
 11
-107.0417944316801
 21
6.189895883609617
 31
0.0
  0
LINE
  5
C6C21
330
C6BAB
100
AcDbEntity
  8
035
100
AcDbLine
 10
-105.83956394374
 20
3.208952224845873
 30
0.0
 11
-105.3439194696495
 21
5.444659968918617
 31
0.0
  0
LINE
  5
C6C22
330
C6BAB
100
AcDbEntity
  8
035
100
AcDbLine
 10
-103.79016517834
 20
3.208952224845873
 30
0.0
 11
-103.2945207042494
 21
5.444659968918617
 31
0.0
  0
LINE
  5
C6C23
330
C6BAB
100
AcDbEntity
  8
035
100
AcDbLine
 10
-101.3382764281857
 20
5.444659968918617
 30
0.0
 11
-101.173061603489
 21
6.189895883609617
 31
0.0
  0
LINE
  5
C6C24
330
C6BAB
100
AcDbEntity
  8
035
100
AcDbLine
 10
-107.2070092563769
 20
5.444659968918617
 30
0.0
 11
-105.3439194696495
 21
5.444659968918617
 31
0.0
  0
LINE
  5
C6C25
330
C6BAB
100
AcDbEntity
  8
035
100
AcDbLine
 10
-105.83956394374
 20
3.208952224845873
 30
0.0
 11
-103.79016517834
 21
3.208952224845873
 31
0.0
  0
LINE
  5
C6C26
330
C6BAB
100
AcDbEntity
  8
035
100
AcDbLine
 10
-107.0417944316801
 20
6.189895883609617
 30
0.0
 11
-101.173061603489
 21
6.189895883609617
 31
0.0
  0
LINE
  5
C6C27
330
C6BAB
100
AcDbEntity
  8
035
100
AcDbLine
 10
-103.2945207042494
 20
5.444659968918617
 30
0.0
 11
-101.3382764281857
 21
5.444659968918617
 31
0.0
  0
LINE
  5
C6C28
330
C6BAB
100
AcDbEntity
  8
035
100
AcDbLine
 10
-101.1818394769216
 20
3.208952224845805
 30
0.0
 11
-100.5209801781344
 21
6.189895883609565
 31
0.0
  0
LINE
  5
C6C29
330
C6BAB
100
AcDbEntity
  8
035
100
AcDbLine
 10
-99.13244071152158
 20
3.208952224845805
 30
0.0
 11
-98.88601714137488
 21
4.320497118209468
 31
0.0
  0
LINE
  5
C6C2A
330
C6BAB
100
AcDbEntity
  8
035
100
AcDbLine
 10
-101.1818394769216
 20
3.208952224845805
 30
0.0
 11
-99.13244071152158
 21
3.208952224845805
 31
0.0
  0
LINE
  5
C6C2B
330
C6BAB
100
AcDbEntity
  8
035
100
AcDbLine
 10
-100.5209801781344
 20
6.189895883609617
 30
0.0
 11
-95.29092862475934
 21
6.189895883609617
 31
0.0
  0
LINE
  5
C6C2C
330
C6BAB
100
AcDbEntity
  8
035
100
AcDbLine
 10
-94.91867473489824
 20
3.520906336302678
 30
0.0
 11
-94.87013225775148
 21
4.215096101251665
 31
0.0
  0
LINE
  5
C6C2D
330
C6BAB
100
AcDbEntity
  8
035
100
AcDbLine
 10
-96.97327992025115
 20
3.446451062164297
 30
0.0
 11
-96.93576081849499
 21
3.992514841008047
 31
0.0
  0
LINE
  5
C6C2E
330
C6BAB
100
AcDbEntity
  8
035
100
AcDbLine
 10
-98.80887313646439
 20
4.66847123716582
 30
0.0
 11
-98.5886304569205
 21
5.661921764653206
 31
0.0
  0
ARC
  5
C6C2F
330
C6BAB
100
AcDbEntity
  8
035
100
AcDbCircle
 10
-94.45403688648678
 20
3.4884156928549
 30
0.0
 40
0.4657724466818367
100
AcDbArc
 50
175.9999999999988
 51
216.8698976458987
  0
ARC
  5
C6C30
330
C6BAB
100
AcDbEntity
  8
035
100
AcDbCircle
 10
-96.52473158814329
 20
3.452495178527309
 30
0.0
 40
0.4485890520078757
100
AcDbArc
 50
180.7720046613219
 51
212.8818753488628
  0
LINE
  5
C6C31
330
C6BAB
100
AcDbEntity
  8
035
100
AcDbLine
 10
-96.90145292719229
 20
3.208952224845805
 30
0.0
 11
-94.82665484383153
 21
3.208952224845805
 31
0.0
  0
LWPOLYLINE
  5
C6C32
330
C6BAB
100
AcDbEntity
  8
035
100
AcDbPolyline
 90
        4
 70
     0
 43
0.0
 10
-94.87013225775042
 20
4.215096101251563
 42
0.0848312786284099
 10
-94.88077646652454
 20
4.329787788128927
 42
0.1530484383254131
 10
-94.99037032385265
 20
4.502459983347026
 42
0.0253150863346336
 10
-95.04547907006534
 20
4.544432010918595
 42
0.0679481782030558
  0
LWPOLYLINE
  5
C6C33
330
C6BAB
100
AcDbEntity
  8
035
100
AcDbPolyline
 90
        8
 70
     0
 43
0.0
 10
-95.04547907006534
 20
4.544432010918595
 42
0.0153688240491597
 10
-94.90907921923632
 20
4.614239916025033
 42
0.0739810726103034
 10
-94.51661430413293
 20
4.913500082623537
 42
0.1068944749256624
 10
-94.2711909985825
 20
5.306123767607507
 42
0.1530484383253946
 10
-94.25747105148531
 20
5.633060465607647
 42
0.1530484383254131
 10
-94.43282122321017
 20
5.909335977956569
 42
0.1068944749256794
 10
-94.84167588298959
 20
6.126646410505006
 42
0.0679481782030558
 10
-95.29092862475934
 20
6.189895883611304
 42
0.0605663674549872
  0
LINE
  5
C6C34
330
C6BAB
100
AcDbEntity
  8
035
100
AcDbLine
 10
-93.91578930868499
 20
3.208952224845805
 30
0.0
 11
-93.25493000989771
 21
6.189895883609565
 31
0.0
  0
LINE
  5
C6C35
330
C6BAB
100
AcDbEntity
  8
035
100
AcDbLine
 10
-91.86639054328495
 20
3.208952224845805
 30
0.0
 11
-91.20553124449768
 21
6.189895883609565
 31
0.0
  0
LINE
  5
C6C36
330
C6BAB
100
AcDbEntity
  8
035
100
AcDbLine
 10
-93.91578930868499
 20
3.208952224845805
 30
0.0
 11
-91.86639054328495
 21
3.208952224845805
 31
0.0
  0
LINE
  5
C6C37
330
C6BAB
100
AcDbEntity
  8
035
100
AcDbLine
 10
-93.25493000989771
 20
6.189895883609565
 30
0.0
 11
-91.20553124449768
 21
6.189895883609565
 31
0.0
  0
LINE
  5
C6C38
330
C6BAB
100
AcDbEntity
  8
035
100
AcDbLine
 10
-90.65538218191219
 20
3.208952224845805
 30
0.0
 11
-89.99452288312488
 21
6.189895883609565
 31
0.0
  0
LINE
  5
C6C39
330
C6BAB
100
AcDbEntity
  8
035
100
AcDbLine
 10
-88.69913790584847
 20
3.208952224845805
 30
0.0
 11
-88.53392308115171
 21
3.954188139536805
 31
0.0
  0
LINE
  5
C6C3A
330
C6BAB
100
AcDbEntity
  8
035
100
AcDbLine
 10
-89.99452288312488
 20
6.189895883609565
 30
0.0
 11
-88.03827860706119
 21
6.189895883609565
 31
0.0
  0
LINE
  5
C6C3B
330
C6BAB
100
AcDbEntity
  8
035
100
AcDbLine
 10
-90.65538218191219
 20
3.208952224845805
 30
0.0
 11
-88.69913790584847
 21
3.208952224845805
 31
0.0
  0
LINE
  5
C6C3C
330
C6BAB
100
AcDbEntity
  8
035
100
AcDbLine
 10
-88.53392308115171
 20
3.954188139536805
 30
0.0
 11
-87.65950250944404
 21
4.326806096882253
 31
0.0
  0
LINE
  5
C6C3D
330
C6BAB
100
AcDbEntity
  8
035
100
AcDbLine
 10
-88.26180454635686
 20
5.181635528439469
 30
0.0
 11
-85.89572535232468
 21
6.189895883609565
 31
0.0
  0
LINE
  5
C6C3E
330
C6BAB
100
AcDbEntity
  8
035
100
AcDbLine
 10
-85.89572535232468
 20
6.189895883609565
 30
0.0
 11
-83.28739965090642
 21
6.189895883609565
 31
0.0
  0
LINE
  5
C6C3F
330
C6BAB
100
AcDbEntity
  8
035
100
AcDbLine
 10
-87.65950250944404
 20
4.326806096882253
 30
0.0
 11
-86.556584651112
 21
3.208952224845805
 31
0.0
  0
LINE
  5
C6C40
330
C6BAB
100
AcDbEntity
  8
035
100
AcDbLine
 10
-85.69205622310212
 20
5.16519650090959
 30
0.0
 11
-83.76194997102095
 21
3.208952224845805
 31
0.0
  0
LINE
  5
C6C41
330
C6BAB
100
AcDbEntity
  8
035
100
AcDbLine
 10
-85.69205622310212
 20
5.16519650090959
 30
0.0
 11
-83.28739965090642
 21
6.189895883609565
 31
0.0
  0
LINE
  5
C6C42
330
C6BAB
100
AcDbEntity
  8
035
100
AcDbLine
 10
-88.26180454635686
 20
5.181635528439469
 30
0.0
 11
-88.03827860706119
 21
6.189895883609565
 31
0.0
  0
LINE
  5
C6C43
330
C6BAB
100
AcDbEntity
  8
035
100
AcDbLine
 10
-86.556584651112
 20
3.208952224845805
 30
0.0
 11
-83.76194997102095
 21
3.208952224845805
 31
0.0
  0
TEXT
  5
C6C44
330
C6BAB
100
AcDbEntity
  8
035
 62
     4
100
AcDbText
 10
-78.27330488103024
 20
3.264636211106505
 30
0.0
 40
2.484848484848484
  1
NINGBO CHINA
 41
0.85
 51
15.0
  7
HELV
100
AcDbText
  0
LINE
  5
C6C45
330
C6BAB
100
AcDbEntity
  8
035
100
AcDbLine
 10
-118.523691174903
 20
5.661921764653206
 30
0.0
 11
-114.9838205801212
 21
5.661921764653223
 31
0.0
  0
LINE
  5
C6C46
330
C6BAB
100
AcDbEntity
  8
035
100
AcDbLine
 10
-118.6984997776553
 20
4.873411113705938
 30
0.0
 11
-115.4380926508824
 21
4.873411113705938
 31
0.0
  0
LINE
  5
C6C47
330
C6BAB
100
AcDbEntity
  8
035
100
AcDbLine
 10
-118.7756437825657
 20
4.525436994749602
 30
0.0
 11
-115.5152366557929
 21
4.525436994749602
 31
0.0
  0
LINE
  5
C6C48
330
C6BAB
100
AcDbEntity
  8
035
100
AcDbLine
 10
-118.9504523853178
 20
3.736926343802164
 30
0.0
 11
-115.410581790536
 21
3.736926343802164
 31
0.0
  0
LINE
  5
C6C49
330
C6BAB
100
AcDbEntity
  8
0
 62
     4
100
AcDbLine
 10
-83.39440235971801
 20
6.144298682356693
 30
0.0
 11
-83.34880515846515
 21
6.189895883609548
 31
0.0
  0
LINE
  5
C6C4A
330
C6BAB
100
AcDbEntity
  8
0
 62
     4
100
AcDbLine
 10
-83.78416440495735
 20
3.208952224845788
 30
0.0
 11
-83.77298248533396
 21
3.220134144469173
 31
0.0
  0
LINE
  5
C6C4B
330
C6BAB
100
AcDbEntity
  8
035
100
AcDbLine
 10
-98.5886304569205
 20
5.661921764653206
 30
0.0
 11
-96.90075825250648
 21
5.661921764653206
 31
0.0
  0
LINE
  5
C6C4C
330
C6BAB
100
AcDbEntity
  8
035
100
AcDbLine
 10
-98.80887313646439
 20
4.66847123716582
 30
0.0
 11
-97.17648242009744
 21
4.66847123716582
 31
0.0
  0
LINE
  5
C6C4D
330
C6BAB
100
AcDbEntity
  8
035
100
AcDbLine
 10
-98.88601714137488
 20
4.320497118209468
 30
0.0
 11
-97.14735474498574
 21
4.320497118209468
 31
0.0
  0
LINE
  5
C6C4E
330
C6BAB
100
AcDbEntity
  8
035
100
AcDbLine
 10
-96.90075825250648
 20
5.661921764653206
 30
0.0
 11
-96.76753794734811
 21
5.640125181758943
 31
0.0
  0
LINE
  5
C6C4F
330
C6BAB
100
AcDbEntity
  8
035
100
AcDbLine
 10
-96.76753794734811
 20
5.640125181758943
 30
0.0
 11
-96.65210207224786
 21
5.581647824291641
 31
0.0
  0
LINE
  5
C6C50
330
C6BAB
100
AcDbEntity
  8
035
100
AcDbLine
 10
-96.65210207224786
 20
5.581647824291641
 30
0.0
 11
-96.59669075697109
 21
5.492396352417264
 31
0.0
  0
LINE
  5
C6C51
330
C6BAB
100
AcDbEntity
  8
035
100
AcDbLine
 10
-96.59669075697109
 20
5.492396352417264
 30
0.0
 11
-96.55359639307118
 21
5.384678033682692
 31
0.0
  0
LINE
  5
C6C52
330
C6BAB
100
AcDbEntity
  8
035
100
AcDbLine
 10
-96.55359639307118
 20
5.384678033682692
 30
0.0
 11
-96.55205490340916
 21
5.267729264287956
 31
0.0
  0
LINE
  5
C6C53
330
C6BAB
100
AcDbEntity
  8
035
100
AcDbLine
 10
-96.55205490340916
 20
5.267729264287956
 30
0.0
 11
-96.56436811330628
 21
5.098456771199366
 31
0.0
  0
LINE
  5
C6C54
330
C6BAB
100
AcDbEntity
  8
035
100
AcDbLine
 10
-96.56436811330628
 20
5.098456771199366
 30
0.0
 11
-96.62593790427147
 21
4.99535813694978
 31
0.0
  0
LINE
  5
C6C55
330
C6BAB
100
AcDbEntity
  8
035
100
AcDbLine
 10
-96.62593790427147
 20
4.99535813694978
 30
0.0
 11
-96.73521530368327
 21
4.867633076526701
 31
0.0
  0
LINE
  5
C6C56
330
C6BAB
100
AcDbEntity
  8
035
100
AcDbLine
 10
-96.73521530368327
 20
4.867633076526701
 30
0.0
 11
-96.89990775985164
 21
4.769148181222218
 31
0.0
  0
LINE
  5
C6C57
330
C6BAB
100
AcDbEntity
  8
035
100
AcDbLine
 10
-96.89990775985164
 20
4.769148181222218
 30
0.0
 11
-97.05690399214931
 21
4.689130132777947
 31
0.0
  0
LINE
  5
C6C58
330
C6BAB
100
AcDbEntity
  8
035
100
AcDbLine
 10
-97.05690399214931
 20
4.689130132777947
 30
0.0
 11
-97.17648242009744
 21
4.66847123716582
 31
0.0
  0
LINE
  5
C6C59
330
C6BAB
100
AcDbEntity
  8
035
100
AcDbLine
 10
-97.14735474498574
 20
4.320497118209468
 30
0.0
 11
-97.04789825036193
 21
4.306504913947347
 31
0.0
  0
LINE
  5
C6C5A
330
C6BAB
100
AcDbEntity
  8
035
100
AcDbLine
 10
-97.04789825036193
 20
4.306504913947347
 30
0.0
 11
-96.98405738118113
 21
4.26612875263776
 31
0.0
  0
LINE
  5
C6C5B
330
C6BAB
100
AcDbEntity
  8
035
100
AcDbLine
 10
-96.98405738118113
 20
4.26612875263776
 30
0.0
 11
-96.94497388358616
 21
4.202303382050454
 31
0.0
  0
LINE
  5
C6C5C
330
C6BAB
100
AcDbEntity
  8
035
100
AcDbLine
 10
-96.94497388358616
 20
4.202303382050454
 30
0.0
 11
-96.9267341697459
 21
4.125454306361004
 31
0.0
  0
LINE
  5
C6C5D
330
C6BAB
100
AcDbEntity
  8
035
100
AcDbLine
 10
-96.9267341697459
 20
4.125454306361004
 30
0.0
 11
-96.93576081849499
 21
3.992514841008047
 31
0.0
  0
LINE
  5
C6C5E
330
C6BAB
100
AcDbEntity
  8
035
 62
     3
100
AcDbLine
 10
-99.39708213355633
 20
3.208952224845788
 30
0.0
 11
-99.0570595109011
 21
3.548974847501014
 31
0.0
  0
LINE
  5
C6C5F
330
C6BAB
100
AcDbEntity
  8
035
 62
     3
100
AcDbLine
 10
-96.94411259374888
 20
5.661921764653223
 30
0.0
 11
-96.41613847479247
 21
6.189895883609633
 31
0.0
  0
LINE
  5
C6C60
330
C6BAB
100
AcDbEntity
  8
035
 62
     3
100
AcDbLine
 10
-98.28553724019265
 20
4.320497118209468
 30
0.0
 11
-97.93756312123628
 21
4.66847123716582
 31
0.0
  0
LINE
  5
C6C61
330
C6BAB
100
AcDbEntity
  8
035
 62
     3
100
AcDbLine
 10
-99.77891979539704
 20
3.208952224845788
 30
0.0
 11
-98.94829580652565
 21
4.039576213717194
 31
0.0
  0
LINE
  5
C6C62
330
C6BAB
100
AcDbEntity
  8
035
 62
     3
100
AcDbLine
 10
-97.32595025558959
 20
5.661921764653223
 30
0.0
 11
-96.79797613663321
 21
6.189895883609633
 31
0.0
  0
LINE
  5
C6C63
330
C6BAB
100
AcDbEntity
  8
035
 62
     3
100
AcDbLine
 10
-98.66737490203336
 20
4.320497118209468
 30
0.0
 11
-98.31940078307702
 21
4.66847123716582
 31
0.0
  0
LINE
  5
C6C64
330
C6BAB
100
AcDbEntity
  8
035
 62
     3
100
AcDbLine
 10
-100.1607574572378
 20
3.208952224845788
 30
0.0
 11
-98.70123844491773
 21
4.66847123716582
 31
0.0
  0
LINE
  5
C6C65
330
C6BAB
100
AcDbEntity
  8
035
 62
     3
100
AcDbLine
 10
-97.70778791743033
 20
5.661921764653223
 30
0.0
 11
-97.17981379847392
 21
6.189895883609633
 31
0.0
  0
LINE
  5
C6C66
330
C6BAB
100
AcDbEntity
  8
035
 62
     3
100
AcDbLine
 10
-100.5425951190785
 20
3.208952224845788
 30
0.0
 11
-98.73076839777468
 21
5.020778946149638
 31
0.0
  0
LINE
  5
C6C67
330
C6BAB
100
AcDbEntity
  8
035
 62
     3
100
AcDbLine
 10
-98.08962557927108
 20
5.661921764653223
 30
0.0
 11
-97.56165146031467
 21
6.189895883609633
 31
0.0
  0
LINE
  5
C6C68
330
C6BAB
100
AcDbEntity
  8
035
 62
     3
100
AcDbLine
 10
-100.9244327809192
 20
3.208952224845788
 30
0.0
 11
-98.62200469339912
 21
5.51138031236592
 31
0.0
  0
LINE
  5
C6C69
330
C6BAB
100
AcDbEntity
  8
035
 62
     3
100
AcDbLine
 10
-98.47146324111182
 20
5.661921764653223
 30
0.0
 11
-97.94348912215541
 21
6.189895883609633
 31
0.0
  0
LINE
  5
C6C6A
330
C6BAB
100
AcDbEntity
  8
035
 62
     3
100
AcDbLine
 10
-101.1463962136292
 20
3.368826453976535
 30
0.0
 11
-98.32532678399616
 21
6.189895883609633
 31
0.0
  0
LINE
  5
C6C6B
330
C6BAB
100
AcDbEntity
  8
035
 62
     3
100
AcDbLine
 10
-101.0376325092537
 20
3.859427820192732
 30
0.0
 11
-98.70716444583687
 21
6.189895883609633
 31
0.0
  0
LINE
  5
C6C6C
330
C6BAB
100
AcDbEntity
  8
035
 62
     3
100
AcDbLine
 10
-100.9288688048783
 20
4.350029186408946
 30
0.0
 11
-99.08900210767761
 21
6.189895883609633
 31
0.0
  0
LINE
  5
C6C6D
330
C6BAB
100
AcDbEntity
  8
035
 62
     3
100
AcDbLine
 10
-100.8201051005028
 20
4.840630552625142
 30
0.0
 11
-99.47083976951837
 21
6.189895883609633
 31
0.0
  0
LINE
  5
C6C6E
330
C6BAB
100
AcDbEntity
  8
035
 62
     3
100
AcDbLine
 10
-100.7113413961273
 20
5.331231918841356
 30
0.0
 11
-99.85267743135906
 21
6.189895883609633
 31
0.0
  0
LINE
  5
C6C6F
330
C6BAB
100
AcDbEntity
  8
035
 62
     3
100
AcDbLine
 10
-100.6025776917519
 20
5.821833285057553
 30
0.0
 11
-100.2345150931998
 21
6.189895883609633
 31
0.0
  0
LINE
  5
C6C70
330
C6BAB
100
AcDbEntity
  8
035
 62
     3
100
AcDbLine
 10
-101.3615886697315
 20
5.444659968918617
 30
0.0
 11
-101.3316361042962
 21
5.474612534353914
 31
0.0
  0
LINE
  5
C6C71
330
C6BAB
100
AcDbEntity
  8
035
 62
     3
100
AcDbLine
 10
-103.979134075645
 20
3.208952224845856
 30
0.0
 11
-103.7363387506806
 21
3.45174754981023
 31
0.0
  0
LINE
  5
C6C72
330
C6BAB
100
AcDbEntity
  8
035
 62
     3
100
AcDbLine
 10
-101.7434263315723
 20
5.444659968918617
 30
0.0
 11
-101.2228723999209
 21
5.965213900570043
 31
0.0
  0
LINE
  5
C6C73
330
C6BAB
100
AcDbEntity
  8
035
 62
     3
100
AcDbLine
 10
-104.3609717374858
 20
3.208952224845856
 30
0.0
 11
-103.6275750463052
 21
3.942348916026477
 31
0.0
  0
LINE
  5
C6C74
330
C6BAB
100
AcDbEntity
  8
035
 62
     3
100
AcDbLine
 10
-102.125263993413
 20
5.444659968918617
 30
0.0
 11
-101.380028078722
 21
6.189895883609633
 31
0.0
  0
LINE
  5
C6C75
330
C6BAB
100
AcDbEntity
  8
035
 62
     3
100
AcDbLine
 10
-104.7428093993265
 20
3.208952224845856
 30
0.0
 11
-103.5188113419297
 21
4.432950282242709
 31
0.0
  0
LINE
  5
C6C76
330
C6BAB
100
AcDbEntity
  8
035
 62
     3
100
AcDbLine
 10
-102.5071016552538
 20
5.444659968918617
 30
0.0
 11
-101.7618657405627
 21
6.189895883609633
 31
0.0
  0
LINE
  5
C6C77
330
C6BAB
100
AcDbEntity
  8
035
 62
     3
100
AcDbLine
 10
-105.1246470611672
 20
3.208952224845856
 30
0.0
 11
-103.4100476375542
 21
4.923551648458939
 31
0.0
  0
LINE
  5
C6C78
330
C6BAB
100
AcDbEntity
  8
035
 62
     3
100
AcDbLine
 10
-102.8889393170945
 20
5.444659968918617
 30
0.0
 11
-102.1437034024035
 21
6.189895883609633
 31
0.0
  0
LINE
  5
C6C79
330
C6BAB
100
AcDbEntity
  8
035
 62
     3
100
AcDbLine
 10
-105.506484723008
 20
3.208952224845856
 30
0.0
 11
-103.3012839331787
 21
5.414153014675153
 31
0.0
  0
LINE
  5
C6C7A
330
C6BAB
100
AcDbEntity
  8
035
 62
     3
100
AcDbLine
 10
-103.2707769789352
 20
5.444659968918617
 30
0.0
 11
-102.5255410642442
 21
6.189895883609633
 31
0.0
  0
LINE
  5
C6C7B
330
C6BAB
100
AcDbEntity
  8
035
 62
     3
100
AcDbLine
 10
-105.8256754534088
 20
3.271599156285785
 30
0.0
 11
-102.9073787260849
 21
6.189895883609633
 31
0.0
  0
LINE
  5
C6C7C
330
C6BAB
100
AcDbEntity
  8
035
 62
     3
100
AcDbLine
 10
-105.7169117490333
 20
3.762200522501998
 30
0.0
 11
-103.2892163879257
 21
6.189895883609633
 31
0.0
  0
LINE
  5
C6C7D
330
C6BAB
100
AcDbEntity
  8
035
 62
     3
100
AcDbLine
 10
-105.6081480446579
 20
4.252801888718229
 30
0.0
 11
-103.6710540497664
 21
6.189895883609633
 31
0.0
  0
LINE
  5
C6C7E
330
C6BAB
100
AcDbEntity
  8
035
 62
     3
100
AcDbLine
 10
-105.4993843402824
 20
4.743403254934426
 30
0.0
 11
-104.0528917116071
 21
6.189895883609633
 31
0.0
  0
LINE
  5
C6C7F
330
C6BAB
100
AcDbEntity
  8
035
 62
     3
100
AcDbLine
 10
-105.3906206359069
 20
5.23400462115064
 30
0.0
 11
-104.4347293734479
 21
6.189895883609633
 31
0.0
  0
LINE
  5
C6C80
330
C6BAB
100
AcDbEntity
  8
035
 62
     3
100
AcDbLine
 10
-105.5618029499796
 20
5.444659968918617
 30
0.0
 11
-104.8165670352886
 21
6.189895883609633
 31
0.0
  0
LINE
  5
C6C81
330
C6BAB
100
AcDbEntity
  8
035
 62
     3
100
AcDbLine
 10
-105.9436406118204
 20
5.444659968918617
 30
0.0
 11
-105.1984046971293
 21
6.189895883609633
 31
0.0
  0
LINE
  5
C6C82
330
C6BAB
100
AcDbEntity
  8
035
 62
     3
100
AcDbLine
 10
-106.3254782736611
 20
5.444659968918617
 30
0.0
 11
-105.5802423589701
 21
6.189895883609633
 31
0.0
  0
LINE
  5
C6C83
330
C6BAB
100
AcDbEntity
  8
035
 62
     3
100
AcDbLine
 10
-108.6223837756901
 20
3.529592128730385
 30
0.0
 11
-108.0461888645634
 21
4.105787039857031
 31
0.0
  0
LINE
  5
C6C84
330
C6BAB
100
AcDbEntity
  8
035
 62
     3
100
AcDbLine
 10
-106.7073159355018
 20
5.444659968918617
 30
0.0
 11
-105.9620800208108
 21
6.189895883609633
 31
0.0
  0
LINE
  5
C6C85
330
C6BAB
100
AcDbEntity
  8
035
 62
     3
100
AcDbLine
 10
-109.2018758155342
 20
3.331937750727021
 30
0.0
 11
-107.9374251601879
 21
4.596388406073245
 31
0.0
  0
LINE
  5
C6C86
330
C6BAB
100
AcDbEntity
  8
035
 62
     3
100
AcDbLine
 10
-107.0891535973426
 20
5.444659968918617
 30
0.0
 11
-106.3439176826516
 21
6.189895883609633
 31
0.0
  0
LINE
  5
C6C87
330
C6BAB
100
AcDbEntity
  8
035
 62
     3
100
AcDbLine
 10
-109.685112547144
 20
3.230538680957917
 30
0.0
 11
-107.8286614558125
 21
5.086989772289475
 31
0.0
  0
LINE
  5
C6C88
330
C6BAB
100
AcDbEntity
  8
035
 62
     3
100
AcDbLine
 10
-107.1318158865682
 20
5.783835341533776
 30
0.0
 11
-106.7257553444923
 21
6.189895883609633
 31
0.0
  0
LINE
  5
C6C89
330
C6BAB
100
AcDbEntity
  8
035
 62
     3
100
AcDbLine
 10
-110.1242038578462
 20
3.173285032096472
 30
0.0
 11
-107.719897751437
 21
5.577591138505706
 31
0.0
  0
LINE
  5
C6C8A
330
C6BAB
100
AcDbEntity
  8
035
 62
     3
100
AcDbLine
 10
-110.5411423744959
 20
3.13818417728743
 30
0.0
 11
-107.6111340470615
 21
6.06819250472192
 31
0.0
  0
LINE
  5
C6C8B
330
C6BAB
100
AcDbEntity
  8
035
 62
     3
100
AcDbLine
 10
-110.9413656849794
 20
3.119798528644698
 30
0.0
 11
-107.8712683300145
 21
6.189895883609617
 31
0.0
  0
LINE
  5
C6C8C
330
C6BAB
100
AcDbEntity
  8
035
 62
     3
100
AcDbLine
 10
-111.3268095365532
 20
3.116192338911693
 30
0.0
 11
-110.4862919020804
 21
3.956709973384445
 31
0.0
  0
LINE
  5
C6C8D
330
C6BAB
100
AcDbEntity
  8
035
 62
     3
100
AcDbLine
 10
-110.0201084412425
 20
4.422893434222325
 30
0.0
 11
-108.2531059918552
 21
6.189895883609617
 31
0.0
  0
LINE
  5
C6C8E
330
C6BAB
100
AcDbEntity
  8
035
 62
     3
100
AcDbLine
 10
-111.6990131253254
 20
3.125826411980185
 30
0.0
 11
-110.9550723931684
 21
3.86976714413723
 31
0.0
  0
LINE
  5
C6C8F
330
C6BAB
100
AcDbEntity
  8
035
 62
     3
100
AcDbLine
 10
-109.911344736867
 20
4.913494800438573
 30
0.0
 11
-108.634943653696
 21
6.189895883609617
 31
0.0
  0
LINE
  5
C6C90
330
C6BAB
100
AcDbEntity
  8
035
 62
     3
100
AcDbLine
 10
-112.0592237785337
 20
3.147453420612632
 30
0.0
 11
-111.3404602385114
 21
3.866216960634917
 31
0.0
  0
LINE
  5
C6C91
330
C6BAB
100
AcDbEntity
  8
035
 62
     3
100
AcDbLine
 10
-109.8025810324915
 20
5.404096166654838
 30
0.0
 11
-109.0167813155367
 21
6.189895883609617
 31
0.0
  0
LINE
  5
C6C92
330
C6BAB
100
AcDbEntity
  8
035
 62
     3
100
AcDbLine
 10
-112.4084683901957
 20
3.180046470791339
 30
0.0
 11
-111.6794767945423
 21
3.909038066444784
 31
0.0
  0
LINE
  5
C6C93
330
C6BAB
100
AcDbEntity
  8
035
 62
     3
100
AcDbLine
 10
-109.693817328116
 20
5.894697532871086
 30
0.0
 11
-109.3986189773774
 21
6.189895883609617
 31
0.0
  0
LINE
  5
C6C94
330
C6BAB
100
AcDbEntity
  8
035
 62
     3
100
AcDbLine
 10
-112.746026423499
 20
3.22432609932878
 30
0.0
 11
-111.9717607396246
 21
3.99859178320319
 31
0.0
  0
LINE
  5
C6C95
330
C6BAB
100
AcDbEntity
  8
035
 62
     3
100
AcDbLine
 10
-113.0674304360607
 20
3.284759748607856
 30
0.0
 11
-112.2055448239268
 21
4.146645360741766
 31
0.0
  0
LINE
  5
C6C96
330
C6BAB
100
AcDbEntity
  8
035
 62
     3
100
AcDbLine
 10
-113.3739258200552
 20
3.360102026454055
 30
0.0
 11
-112.2746317653859
 21
4.459396081123392
 31
0.0
  0
LINE
  5
C6C97
330
C6BAB
100
AcDbEntity
  8
035
 62
     3
100
AcDbLine
 10
-113.6636502925034
 20
3.452215215846669
 30
0.0
 11
-112.1658680610105
 21
4.949997447339555
 31
0.0
  0
LINE
  5
C6C98
330
C6BAB
100
AcDbEntity
  8
035
 62
     3
100
AcDbLine
 10
-113.9283730895371
 20
3.569330080653637
 30
0.0
 11
-112.057104356635
 21
5.440598813555734
 31
0.0
  0
LINE
  5
C6C99
330
C6BAB
100
AcDbEntity
  8
035
 62
     3
100
AcDbLine
 10
-114.1703111462936
 20
3.709229685737883
 30
0.0
 11
-111.9483406522596
 21
5.931200179771897
 31
0.0
  0
LINE
  5
C6C9A
330
C6BAB
100
AcDbEntity
  8
035
 62
     3
100
AcDbLine
 10
-114.3661627098899
 20
3.895215783982362
 30
0.0
 11
-112.0714826102626
 21
6.189895883609617
 31
0.0
  0
LINE
  5
C6C9B
330
C6BAB
100
AcDbEntity
  8
035
 62
     3
100
AcDbLine
 10
-114.3573369855183
 20
4.285879170194666
 30
0.0
 11
-112.4533202721033
 21
6.189895883609617
 31
0.0
  0
LINE
  5
C6C9C
330
C6BAB
100
AcDbEntity
  8
035
 62
     3
100
AcDbLine
 10
-115.8161015927078
 20
3.20895222484589
 30
0.0
 11
-115.4454620195999
 21
3.579591797953773
 31
0.0
  0
LINE
  5
C6C9D
330
C6BAB
100
AcDbEntity
  8
035
 62
     3
100
AcDbLine
 10
-114.2485732811428
 20
4.776480536410898
 30
0.0
 11
-112.8351579339441
 21
6.189895883609617
 31
0.0
  0
LINE
  5
C6C9E
330
C6BAB
100
AcDbEntity
  8
035
 62
     3
100
AcDbLine
 10
-116.1979392545486
 20
3.20895222484589
 30
0.0
 11
-115.6699651355923
 21
3.736926343802164
 31
0.0
  0
LINE
  5
C6C9F
330
C6BAB
100
AcDbEntity
  8
035
 62
     3
100
AcDbLine
 10
-114.1398095767673
 20
5.267081902627128
 30
0.0
 11
-113.2169955957848
 21
6.189895883609617
 31
0.0
  0
LINE
  5
C6CA0
330
C6BAB
100
AcDbEntity
  8
035
 62
     3
100
AcDbLine
 10
-116.5797769163893
 20
3.20895222484589
 30
0.0
 11
-116.051802797433
 21
3.736926343802164
 31
0.0
  0
LINE
  5
C6CA1
330
C6BAB
100
AcDbEntity
  8
035
 62
     3
100
AcDbLine
 10
-114.0310458723919
 20
5.757683268843325
 30
0.0
 11
-113.5988332576255
 21
6.189895883609617
 31
0.0
  0
LINE
  5
C6CA2
330
C6BAB
100
AcDbEntity
  8
035
 62
     3
100
AcDbLine
 10
-116.96161457823
 20
3.20895222484589
 30
0.0
 11
-116.4336404592737
 21
3.736926343802164
 31
0.0
  0
LINE
  5
C6CA3
330
C6BAB
100
AcDbEntity
  8
035
 62
     3
100
AcDbLine
 10
-115.6451298083263
 20
4.52543699474962
 30
0.0
 11
-115.4782375280105
 21
4.692329275065364
 31
0.0
  0
LINE
  5
C6CA4
330
C6BAB
100
AcDbEntity
  8
035
 62
     3
100
AcDbLine
 10
-117.3434522400708
 20
3.20895222484589
 30
0.0
 11
-116.8154781211145
 21
3.736926343802164
 31
0.0
  0
LINE
  5
C6CA5
330
C6BAB
100
AcDbEntity
  8
035
 62
     3
100
AcDbLine
 10
-116.026967470167
 20
4.52543699474962
 30
0.0
 11
-115.6789933512107
 21
4.873411113705938
 31
0.0
  0
LINE
  5
C6CA6
330
C6BAB
100
AcDbEntity
  8
035
 62
     3
100
AcDbLine
 10
-117.7252899019115
 20
3.20895222484589
 30
0.0
 11
-117.1973157829552
 21
3.736926343802164
 31
0.0
  0
LINE
  5
C6CA7
330
C6BAB
100
AcDbEntity
  8
035
 62
     3
100
AcDbLine
 10
-115.2723203621041
 20
5.661921764653223
 30
0.0
 11
-114.9016434977226
 21
6.032598629034808
 31
0.0
  0
LINE
  5
C6CA8
330
C6BAB
100
AcDbEntity
  8
035
 62
     3
100
AcDbLine
 10
-116.4088051320078
 20
4.52543699474962
 30
0.0
 11
-116.0608310130514
 21
4.873411113705938
 31
0.0
  0
LINE
  5
C6CA9
330
C6BAB
100
AcDbEntity
  8
035
 62
     3
100
AcDbLine
 10
-118.1071275637522
 20
3.20895222484589
 30
0.0
 11
-117.5791534447959
 21
3.736926343802164
 31
0.0
  0
LINE
  5
C6CAA
330
C6BAB
100
AcDbEntity
  8
035
 62
     3
100
AcDbLine
 10
-115.6541580239449
 20
5.661921764653223
 30
0.0
 11
-115.1261839049885
 21
6.189895883609617
 31
0.0
  0
LINE
  5
C6CAB
330
C6BAB
100
AcDbEntity
  8
035
 62
     3
100
AcDbLine
 10
-116.7906427938485
 20
4.52543699474962
 30
0.0
 11
-116.4426686748922
 21
4.873411113705938
 31
0.0
  0
LINE
  5
C6CAC
330
C6BAB
100
AcDbEntity
  8
035
 62
     3
100
AcDbLine
 10
-118.488965225593
 20
3.20895222484589
 30
0.0
 11
-117.9609911066367
 21
3.736926343802164
 31
0.0
  0
LINE
  5
C6CAD
330
C6BAB
100
AcDbEntity
  8
035
 62
     3
100
AcDbLine
 10
-116.0359956857857
 20
5.661921764653223
 30
0.0
 11
-115.5080215668292
 21
6.189895883609617
 31
0.0
  0
LINE
  5
C6CAE
330
C6BAB
100
AcDbEntity
  8
035
 62
     3
100
AcDbLine
 10
-117.1724804556892
 20
4.52543699474962
 30
0.0
 11
-116.8245063367329
 21
4.873411113705938
 31
0.0
  0
LINE
  5
C6CAF
330
C6BAB
100
AcDbEntity
  8
035
 62
     3
100
AcDbLine
 10
-118.8708028874337
 20
3.20895222484589
 30
0.0
 11
-118.3428287684774
 21
3.736926343802164
 31
0.0
  0
LINE
  5
C6CB0
330
C6BAB
100
AcDbEntity
  8
035
 62
     3
100
AcDbLine
 10
-116.4178333476264
 20
5.661921764653223
 30
0.0
 11
-115.88985922867
 21
6.189895883609617
 31
0.0
  0
LINE
  5
C6CB1
330
C6BAB
100
AcDbEntity
  8
035
 62
     3
100
AcDbLine
 10
-117.55431811753
 20
4.52543699474962
 30
0.0
 11
-117.2063439985737
 21
4.873411113705938
 31
0.0
  0
LINE
  5
C6CB2
330
C6BAB
100
AcDbEntity
  8
035
 62
     3
100
AcDbLine
 10
-119.2526405492744
 20
3.20895222484589
 30
0.0
 11
-118.7246664303181
 21
3.736926343802164
 31
0.0
  0
LINE
  5
C6CB3
330
C6BAB
100
AcDbEntity
  8
035
 62
     3
100
AcDbLine
 10
-116.7996710094671
 20
5.661921764653206
 30
0.0
 11
-116.2716968905107
 21
6.189895883609617
 31
0.0
  0
LINE
  5
C6CB4
330
C6BAB
100
AcDbEntity
  8
035
 62
     3
100
AcDbLine
 10
-117.9361557793707
 20
4.52543699474962
 30
0.0
 11
-117.5881816604144
 21
4.873411113705938
 31
0.0
  0
LINE
  5
C6CB5
330
C6BAB
100
AcDbEntity
  8
035
 62
     3
100
AcDbLine
 10
-119.6344782111152
 20
3.20895222484589
 30
0.0
 11
-118.9060021819818
 21
3.937428253979223
 31
0.0
  0
LINE
  5
C6CB6
330
C6BAB
100
AcDbEntity
  8
035
 62
     3
100
AcDbLine
 10
-117.1815086713078
 20
5.661921764653206
 30
0.0
 11
-116.6535345523514
 21
6.189895883609617
 31
0.0
  0
LINE
  5
C6CB7
330
C6BAB
100
AcDbEntity
  8
035
 62
     3
100
AcDbLine
 10
-118.3179934412114
 20
4.52543699474962
 30
0.0
 11
-117.9700193222551
 21
4.873411113705938
 31
0.0
  0
LINE
  5
C6CB8
330
C6BAB
100
AcDbEntity
  8
035
 62
     3
100
AcDbLine
 10
-120.0163158729559
 20
3.20895222484589
 30
0.0
 11
-118.7972384776065
 21
4.428029620195334
 31
0.0
  0
LINE
  5
C6CB9
330
C6BAB
100
AcDbEntity
  8
035
 62
     3
100
AcDbLine
 10
-117.5633463331486
 20
5.661921764653206
 30
0.0
 11
-117.0353722141922
 21
6.189895883609617
 31
0.0
  0
LINE
  5
C6CBA
330
C6BAB
100
AcDbEntity
  8
035
 62
     3
100
AcDbLine
 10
-118.6998311030522
 20
4.52543699474962
 30
0.0
 11
-118.3518569840958
 21
4.873411113705938
 31
0.0
  0
LINE
  5
C6CBB
330
C6BAB
100
AcDbEntity
  8
035
 62
     3
100
AcDbLine
 10
-120.3981535347966
 20
3.20895222484589
 30
0.0
 11
-118.6884747732311
 21
4.918630986411429
 31
0.0
  0
LINE
  5
C6CBC
330
C6BAB
100
AcDbEntity
  8
035
 62
     3
100
AcDbLine
 10
-117.9451839949893
 20
5.661921764653206
 30
0.0
 11
-117.4172098760329
 21
6.189895883609617
 31
0.0
  0
LINE
  5
C6CBD
330
C6BAB
100
AcDbEntity
  8
035
 62
     3
100
AcDbLine
 10
-120.7799911966374
 20
3.20895222484589
 30
0.0
 11
-118.5797110688555
 21
5.409232352627762
 31
0.0
  0
LINE
  5
C6CBE
330
C6BAB
100
AcDbEntity
  8
035
 62
     3
100
AcDbLine
 10
-118.3270216568301
 20
5.661921764653206
 30
0.0
 11
-117.7990475378736
 21
6.189895883609617
 31
0.0
  0
LINE
  5
C6CBF
330
C6BAB
100
AcDbEntity
  8
035
 62
     3
100
AcDbLine
 10
-121.1041025890855
 20
3.266678494238564
 30
0.0
 11
-118.1808851997144
 21
6.189895883609617
 31
0.0
  0
LINE
  5
C6CC0
330
C6BAB
100
AcDbEntity
  8
035
 62
     3
100
AcDbLine
 10
-120.99533888471
 20
3.757279860454761
 30
0.0
 11
-118.5627228615551
 21
6.189895883609617
 31
0.0
  0
LINE
  5
C6CC1
330
C6BAB
100
AcDbEntity
  8
035
 62
     3
100
AcDbLine
 10
-120.8865751803345
 20
4.247881226670958
 30
0.0
 11
-118.9445605233958
 21
6.189895883609617
 31
0.0
  0
LINE
  5
C6CC2
330
C6BAB
100
AcDbEntity
  8
035
 62
     3
100
AcDbLine
 10
-122.3073418440003
 20
3.208952224845873
 30
0.0
 11
-122.0943890882619
 21
3.421904980584329
 31
0.0
  0
LINE
  5
C6CC3
330
C6BAB
100
AcDbEntity
  8
035
 62
     3
100
AcDbLine
 10
-120.7778114759591
 20
4.738482592887137
 30
0.0
 11
-119.3263981852366
 21
6.189895883609617
 31
0.0
  0
LINE
  5
C6CC4
330
C6BAB
100
AcDbEntity
  8
035
 62
     3
100
AcDbLine
 10
-122.6891795058411
 20
3.208952224845873
 30
0.0
 11
-121.9856253838864
 21
3.912506346800543
 31
0.0
  0
LINE
  5
C6CC5
330
C6BAB
100
AcDbEntity
  8
035
 62
     3
100
AcDbLine
 10
-120.6690477715836
 20
5.229083959103351
 30
0.0
 11
-119.7082358470773
 21
6.189895883609617
 31
0.0
  0
LINE
  5
C6CC6
330
C6BAB
100
AcDbEntity
  8
035
 62
     3
100
AcDbLine
 10
-123.0710171676818
 20
3.208952224845873
 30
0.0
 11
-121.8768616795109
 21
4.403107713016757
 31
0.0
  0
LINE
  5
C6CC7
330
C6BAB
100
AcDbEntity
  8
035
 62
     3
100
AcDbLine
 10
-120.5602840672082
 20
5.719685325319548
 30
0.0
 11
-120.090073508918
 21
6.189895883609617
 31
0.0
  0
LINE
  5
C6CC8
330
C6BAB
100
AcDbEntity
  8
035
 62
     3
100
AcDbLine
 10
-123.4528548295225
 20
3.208952224845873
 30
0.0
 11
-121.7680979751354
 21
4.893709079232953
 31
0.0
  0
LINE
  5
C6CC9
330
C6BAB
100
AcDbEntity
  8
035
 62
     3
100
AcDbLine
 10
-123.8346924913633
 20
3.208952224845873
 30
0.0
 11
-121.65933427076
 21
5.38431044544915
 31
0.0
  0
LINE
  5
C6CCA
330
C6BAB
100
AcDbEntity
  8
035
 62
     3
100
AcDbLine
 10
-124.216530153204
 20
3.208952224845873
 30
0.0
 11
-121.5505705663845
 21
5.874911811665365
 31
0.0
  0
LINE
  5
C6CCB
330
C6BAB
100
AcDbEntity
  8
035
 62
     3
100
AcDbLine
 10
-124.5377958972225
 20
3.269524142668146
 30
0.0
 11
-121.617424156281
 21
6.189895883609617
 31
0.0
  0
LINE
  5
C6CCC
330
C6BAB
100
AcDbEntity
  8
035
 62
     3
100
AcDbLine
 10
-124.7388082752963
 20
3.450349426435034
 30
0.0
 11
-121.9992618181217
 21
6.189895883609617
 31
0.0
  0
LINE
  5
C6CCD
330
C6BAB
100
AcDbEntity
  8
035
 62
     3
100
AcDbLine
 10
-124.9398206533702
 20
3.63117471020192
 30
0.0
 11
-122.3810994799625
 21
6.189895883609617
 31
0.0
  0
LINE
  5
C6CCE
330
C6BAB
100
AcDbEntity
  8
035
 62
     3
100
AcDbLine
 10
-125.140833031444
 20
3.811999993968808
 30
0.0
 11
-123.964738004376
 21
4.988095021036824
 31
0.0
  0
LINE
  5
C6CCF
330
C6BAB
100
AcDbEntity
  8
035
 62
     3
100
AcDbLine
 10
-123.7486709734882
 20
5.204162051924638
 30
0.0
 11
-122.7629371418032
 21
6.189895883609617
 31
0.0
  0
LINE
  5
C6CD0
330
C6BAB
100
AcDbEntity
  8
035
 62
     3
100
AcDbLine
 10
-125.3418454095179
 20
3.992825277735695
 30
0.0
 11
-124.188867265826
 21
5.145803421427589
 31
0.0
  0
LINE
  5
C6CD1
330
C6BAB
100
AcDbEntity
  8
035
 62
     3
100
AcDbLine
 10
-123.6399072691127
 20
5.694763418140903
 30
0.0
 11
-123.1447748036439
 21
6.189895883609617
 31
0.0
  0
LINE
  5
C6CD2
330
C6BAB
100
AcDbEntity
  8
035
 62
     3
100
AcDbLine
 10
-125.5428577875917
 20
4.1736505615026
 30
0.0
 11
-124.4129965272759
 21
5.303511821818371
 31
0.0
  0
LINE
  5
C6CD3
330
C6BAB
100
AcDbEntity
  8
035
 62
     3
100
AcDbLine
 10
-123.5311435647371
 20
6.18536478435715
 30
0.0
 11
-123.5266124654847
 21
6.189895883609617
 31
0.0
  0
LINE
  5
C6CD4
330
C6BAB
100
AcDbEntity
  8
035
 62
     3
100
AcDbLine
 10
-126.8893937860892
 20
3.208952224845856
 30
0.0
 11
-126.6539794541958
 21
3.444366556739228
 31
0.0
  0
LINE
  5
C6CD5
330
C6BAB
100
AcDbEntity
  8
035
 62
     3
100
AcDbLine
 10
-125.7438701656655
 20
4.354475845269488
 30
0.0
 11
-124.6371257887259
 21
5.461220222209155
 31
0.0
  0
LINE
  5
C6CD6
330
C6BAB
100
AcDbEntity
  8
035
 62
     3
100
AcDbLine
 10
-127.2712314479299
 20
3.208952224845856
 30
0.0
 11
-126.5452157498203
 21
3.934967922955459
 31
0.0
  0
LINE
  5
C6CD7
330
C6BAB
100
AcDbEntity
  8
035
 62
     3
100
AcDbLine
 10
-125.9448825437394
 20
4.535301129036374
 30
0.0
 11
-124.8612550501758
 21
5.61892862259992
 31
0.0
  0
LINE
  5
C6CD8
330
C6BAB
100
AcDbEntity
  8
035
 62
     3
100
AcDbLine
 10
-127.6530691097707
 20
3.208952224845856
 30
0.0
 11
-126.4364520454448
 21
4.425569289171656
 31
0.0
  0
LINE
  5
C6CD9
330
C6BAB
100
AcDbEntity
  8
035
 62
     3
100
AcDbLine
 10
-126.1458949218132
 20
4.716126412803262
 30
0.0
 11
-125.0853843116258
 21
5.776637022990703
 31
0.0
  0
LINE
  5
C6CDA
330
C6BAB
100
AcDbEntity
  8
035
 62
     3
100
AcDbLine
 10
-128.0349067716114
 20
3.208952224845856
 30
0.0
 11
-125.3095135730758
 21
5.934345423381468
 31
0.0
  0
LINE
  5
C6CDB
330
C6BAB
100
AcDbEntity
  8
035
 62
     3
100
AcDbLine
 10
-128.4167444334521
 20
3.208952224845856
 30
0.0
 11
-125.5336428345257
 21
6.092053823772252
 31
0.0
  0
LINE
  5
C6CDC
330
C6BAB
100
AcDbEntity
  8
035
 62
     3
100
AcDbLine
 10
-128.7433161569239
 20
3.264218163214835
 30
0.0
 11
-125.8176384365291
 21
6.189895883609617
 31
0.0
  0
LINE
  5
C6CDD
330
C6BAB
100
AcDbEntity
  8
035
 62
     3
100
AcDbLine
 10
-128.6345524525484
 20
3.754819529431031
 30
0.0
 11
-126.1994760983699
 21
6.189895883609617
 31
0.0
  0
LINE
  5
C6CDE
330
C6BAB
100
AcDbEntity
  8
035
 62
     3
100
AcDbLine
 10
-128.5257887481729
 20
4.245420895647228
 30
0.0
 11
-126.5813137602106
 21
6.189895883609617
 31
0.0
  0
LINE
  5
C6CDF
330
C6BAB
100
AcDbEntity
  8
035
 62
     3
100
AcDbLine
 10
-128.4170250437975
 20
4.736022261863442
 30
0.0
 11
-126.9631514220513
 21
6.189895883609617
 31
0.0
  0
LINE
  5
C6CE0
330
C6BAB
100
AcDbEntity
  8
035
 62
     3
100
AcDbLine
 10
-128.308261339422
 20
5.226623628079638
 30
0.0
 11
-127.344989083892
 21
6.189895883609617
 31
0.0
  0
LINE
  5
C6CE1
330
C6BAB
100
AcDbEntity
  8
035
 62
     3
100
AcDbLine
 10
-128.1994976350465
 20
5.717224994295852
 30
0.0
 11
-127.7268267457328
 21
6.189895883609617
 31
0.0
  0
LINE
  5
C6CE2
330
C6BAB
100
AcDbEntity
  8
035
 62
     3
100
AcDbLine
 10
-97.9036995783519
 20
4.320497118209468
 30
0.0
 11
-97.55572545939553
 21
4.66847123716582
 31
0.0
  0
LINE
  5
C6CE3
330
C6BAB
100
AcDbEntity
  8
035
 62
     3
100
AcDbLine
 10
-96.64844283557536
 20
5.575753860986012
 30
0.0
 11
-96.03430081295172
 21
6.189895883609633
 31
0.0
  0
LINE
  5
C6CE4
330
C6BAB
100
AcDbEntity
  8
035
 62
     3
100
AcDbLine
 10
-97.52186191651116
 20
4.320497118209468
 30
0.0
 11
-97.17334592240645
 21
4.669013112314186
 31
0.0
  0
LINE
  5
C6CE5
330
C6BAB
100
AcDbEntity
  8
035
 62
     3
100
AcDbLine
 10
-96.55234858935784
 20
5.290010445362784
 30
0.0
 11
-95.65246315111101
 21
6.189895883609633
 31
0.0
  0
LINE
  5
C6CE6
330
C6BAB
100
AcDbEntity
  8
035
 62
     3
100
AcDbLine
 10
-97.14092836127402
 20
4.319593011605869
 30
0.0
 11
-95.27082998226877
 21
6.189691390611133
 31
0.0
  0
LINE
  5
C6CE7
330
C6BAB
100
AcDbEntity
  8
035
 62
     3
100
AcDbLine
 10
-96.93181642503262
 20
4.146867286006508
 30
0.0
 11
-94.92970316299974
 21
6.148980548039386
 31
0.0
  0
LINE
  5
C6CE8
330
C6BAB
100
AcDbEntity
  8
035
 62
     3
100
AcDbLine
 10
-96.95283509237818
 20
3.744010956820258
 30
0.0
 11
-94.64629900406952
 21
6.050547045128885
 31
0.0
  0
LINE
  5
C6CE9
330
C6BAB
100
AcDbEntity
  8
035
 62
     3
100
AcDbLine
 10
-96.9621218639855
 20
3.352886523372168
 30
0.0
 11
-94.41834558134086
 21
5.896662806016834
 31
0.0
  0
LINE
  5
C6CEA
330
C6BAB
100
AcDbEntity
  8
035
 62
     3
100
AcDbLine
 10
-96.72421850067115
 20
3.208952224845805
 30
0.0
 11
-94.26735537902217
 21
5.665815346494795
 31
0.0
  0
LINE
  5
C6CEB
330
C6BAB
100
AcDbEntity
  8
035
 62
     3
100
AcDbLine
 10
-96.34238083883042
 20
3.208952224845805
 30
0.0
 11
-95.02297977204372
 21
4.528353291632501
 31
0.0
  0
LINE
  5
C6CEC
330
C6BAB
100
AcDbEntity
  8
035
 62
     3
100
AcDbLine
 10
-94.96913547069997
 20
4.582197592976248
 30
0.0
 11
-94.28736021469417
 21
5.263972848982049
 31
0.0
  0
LINE
  5
C6CED
330
C6BAB
100
AcDbEntity
  8
035
 62
     3
100
AcDbLine
 10
-95.96054317698969
 20
3.208952224845805
 30
0.0
 11
-94.87352601407634
 21
4.295969387759114
 31
0.0
  0
LINE
  5
C6CEE
330
C6BAB
100
AcDbEntity
  8
035
 62
     3
100
AcDbLine
 10
-93.33335591492076
 20
5.836139486914712
 30
0.0
 11
-92.97959951822592
 21
6.189895883609548
 31
0.0
  0
LINE
  5
C6CEF
330
C6BAB
100
AcDbEntity
  8
035
 62
     3
100
AcDbLine
 10
-95.57870551514893
 20
3.208952224845805
 30
0.0
 11
-94.89250486775958
 21
3.895152872235186
 31
0.0
  0
LINE
  5
C6CF0
330
C6BAB
100
AcDbEntity
  8
035
 62
     3
100
AcDbLine
 10
-93.44211961929625
 20
5.345538120698515
 30
0.0
 11
-92.59776185638518
 21
6.189895883609548
 31
0.0
  0
LINE
  5
C6CF1
330
C6BAB
100
AcDbEntity
  8
035
 62
     3
100
AcDbLine
 10
-95.19686785330822
 20
3.208952224845805
 30
0.0
 11
-94.91980315618267
 21
3.486016921971358
 31
0.0
  0
LINE
  5
C6CF2
330
C6BAB
100
AcDbEntity
  8
035
 62
     3
100
AcDbLine
 10
-93.5508833236717
 20
4.8549367544823
 30
0.0
 11
-92.21592419454447
 21
6.189895883609548
 31
0.0
  0
LINE
  5
C6CF3
330
C6BAB
100
AcDbEntity
  8
035
 62
     3
100
AcDbLine
 10
-93.65964702804717
 20
4.364335388266087
 30
0.0
 11
-91.83408653270372
 21
6.189895883609548
 31
0.0
  0
LINE
  5
C6CF4
330
C6BAB
100
AcDbEntity
  8
035
 62
     3
100
AcDbLine
 10
-93.76841073242266
 20
3.873734022049873
 30
0.0
 11
-91.45224887086298
 21
6.189895883609548
 31
0.0
  0
LINE
  5
C6CF5
330
C6BAB
100
AcDbEntity
  8
035
 62
     3
100
AcDbLine
 10
-93.87717443679813
 20
3.38313265583366
 30
0.0
 11
-91.24401921219265
 21
6.016287880439139
 31
0.0
  0
LINE
  5
C6CF6
330
C6BAB
100
AcDbEntity
  8
035
 62
     3
100
AcDbLine
 10
-93.66951720594526
 20
3.208952224845805
 30
0.0
 11
-91.35278291656812
 21
5.525686514222942
 31
0.0
  0
LINE
  5
C6CF7
330
C6BAB
100
AcDbEntity
  8
035
 62
     3
100
AcDbLine
 10
-93.28767954410453
 20
3.208952224845805
 30
0.0
 11
-91.46154662094359
 21
5.035085148006729
 31
0.0
  0
LINE
  5
C6CF8
330
C6BAB
100
AcDbEntity
  8
035
 62
     3
100
AcDbLine
 10
-92.90584188226379
 20
3.208952224845805
 30
0.0
 11
-91.57031032531907
 21
4.544483781790532
 31
0.0
  0
LINE
  5
C6CF9
330
C6BAB
100
AcDbEntity
  8
035
 62
     3
100
AcDbLine
 10
-90.01435496532488
 20
6.100439141784707
 30
0.0
 11
-89.9248982235
 21
6.189895883609582
 31
0.0
  0
LINE
  5
C6CFA
330
C6BAB
100
AcDbEntity
  8
035
 62
     3
100
AcDbLine
 10
-92.52400422042304
 20
3.208952224845805
 30
0.0
 11
-91.67907402969451
 21
4.053882415574318
 31
0.0
  0
LINE
  5
C6CFB
330
C6BAB
100
AcDbEntity
  8
035
 62
     3
100
AcDbLine
 10
-90.12311866970035
 20
5.609837775568493
 30
0.0
 11
-89.54306056165924
 21
6.189895883609582
 31
0.0
  0
LINE
  5
C6CFC
330
C6BAB
100
AcDbEntity
  8
035
 62
     3
100
AcDbLine
 10
-92.14216655858228
 20
3.208952224845805
 30
0.0
 11
-91.78783773406999
 21
3.563281049358121
 31
0.0
  0
LINE
  5
C6CFD
330
C6BAB
100
AcDbEntity
  8
035
 62
     3
100
AcDbLine
 10
-90.23188237407582
 20
5.119236409352263
 30
0.0
 11
-89.16122289981855
 21
6.189895883609582
 31
0.0
  0
LINE
  5
C6CFE
330
C6BAB
100
AcDbEntity
  8
035
 62
     3
100
AcDbLine
 10
-90.34064607845129
 20
4.628635043136066
 30
0.0
 11
-88.77938523797778
 21
6.189895883609582
 31
0.0
  0
LINE
  5
C6CFF
330
C6BAB
100
AcDbEntity
  8
035
 62
     3
100
AcDbLine
 10
-90.4494097828268
 20
4.138033676919851
 30
0.0
 11
-88.39754757613704
 21
6.189895883609582
 31
0.0
  0
LINE
  5
C6D00
330
C6BAB
100
AcDbEntity
  8
035
 62
     3
100
AcDbLine
 10
-90.55817348720228
 20
3.647432310703621
 30
0.0
 11
-88.04470713644244
 21
6.160898661463486
 31
0.0
  0
LINE
  5
C6D01
330
C6BAB
100
AcDbEntity
  8
035
 62
     3
100
AcDbLine
 10
-90.61481591121937
 20
3.208952224845788
 30
0.0
 11
-88.15347084081787
 21
5.670297295247305
 31
0.0
  0
LINE
  5
C6D02
330
C6BAB
100
AcDbEntity
  8
035
 62
     3
100
AcDbLine
 10
-90.23297824937865
 20
3.208952224845788
 30
0.0
 11
-88.25917397856517
 21
5.182756495659273
 31
0.0
  0
LINE
  5
C6D03
330
C6BAB
100
AcDbEntity
  8
035
 62
     3
100
AcDbLine
 10
-89.85114058753792
 20
3.208952224845788
 30
0.0
 11
-87.59379939300087
 21
5.466293419382836
 31
0.0
  0
LINE
  5
C6D04
330
C6BAB
100
AcDbEntity
  8
035
 62
     3
100
AcDbLine
 10
-89.46930292569717
 20
3.208952224845788
 30
0.0
 11
-86.92842480743655
 21
5.749830343106398
 31
0.0
  0
LINE
  5
C6D05
330
C6BAB
100
AcDbEntity
  8
035
 62
     3
100
AcDbLine
 10
-89.08746526385645
 20
3.208952224845788
 30
0.0
 11
-88.58852565831989
 21
3.707891830382331
 31
0.0
  0
LINE
  5
C6D06
330
C6BAB
100
AcDbEntity
  8
035
 62
     3
100
AcDbLine
 10
-88.19988547768232
 20
4.096532011019891
 30
0.0
 11
-86.26305022187226
 21
6.033367266829978
 31
0.0
  0
LINE
  5
C6D07
330
C6BAB
100
AcDbEntity
  8
035
 62
     3
100
AcDbLine
 10
-88.70562760201568
 20
3.208952224845788
 30
0.0
 11
-88.69728936269529
 21
3.217290464166168
 31
0.0
  0
LINE
  5
C6D08
330
C6BAB
100
AcDbEntity
  8
035
 62
     3
100
AcDbLine
 10
-87.62387932911162
 20
4.290700497749869
 30
0.0
 11
-85.72468394325193
 21
6.189895883609565
 31
0.0
  0
LINE
  5
C6D09
330
C6BAB
100
AcDbEntity
  8
035
 62
     3
100
AcDbLine
 10
-87.43424454113725
 20
4.098497623883517
 30
0.0
 11
-85.34284628141119
 21
6.189895883609565
 31
0.0
  0
LINE
  5
C6D0A
330
C6BAB
100
AcDbEntity
  8
035
 62
     3
100
AcDbLine
 10
-87.24460975316288
 20
3.906294750017147
 30
0.0
 11
-84.96100861957046
 21
6.189895883609565
 31
0.0
  0
LINE
  5
C6D0B
330
C6BAB
100
AcDbEntity
  8
035
 62
     3
100
AcDbLine
 10
-87.05497496518853
 20
3.714091876150777
 30
0.0
 11
-85.64825983308049
 21
5.120807008258796
 31
0.0
  0
LINE
  5
C6D0C
330
C6BAB
100
AcDbEntity
  8
035
 62
     3
100
AcDbLine
 10
-85.53838713542512
 20
5.230679705914158
 30
0.0
 11
-84.57917095772973
 21
6.189895883609565
 31
0.0
  0
LINE
  5
C6D0D
330
C6BAB
100
AcDbEntity
  8
035
 62
     3
100
AcDbLine
 10
-86.86534017721417
 20
3.521889002284408
 30
0.0
 11
-85.45862504510612
 21
4.928604134392426
 31
0.0
  0
LINE
  5
C6D0E
330
C6BAB
100
AcDbEntity
  8
035
 62
     3
100
AcDbLine
 10
-84.87301254986084
 20
5.514216629637703
 30
0.0
 11
-84.19733329588899
 21
6.189895883609565
 31
0.0
  0
LINE
  5
C6D0F
330
C6BAB
100
AcDbEntity
  8
035
 62
     3
100
AcDbLine
 10
-86.67570538923978
 20
3.329686128418055
 30
0.0
 11
-85.26899025713175
 21
4.736401260526056
 31
0.0
  0
LINE
  5
C6D10
330
C6BAB
100
AcDbEntity
  8
035
 62
     3
100
AcDbLine
 10
-84.20763796429655
 20
5.797753553361249
 30
0.0
 11
-83.81549563404822
 21
6.189895883609565
 31
0.0
  0
LINE
  5
C6D11
330
C6BAB
100
AcDbEntity
  8
035
 62
     3
100
AcDbLine
 10
-86.41460163097127
 20
3.208952224845805
 30
0.0
 11
-85.07935546915737
 21
4.544198386659703
 31
0.0
  0
LINE
  5
C6D12
330
C6BAB
100
AcDbEntity
  8
035
 62
     3
100
AcDbLine
 10
-83.54226337873228
 20
6.081290477084794
 30
0.0
 11
-83.43365797220753
 21
6.189895883609565
 31
0.0
  0
LINE
  5
C6D13
330
C6BAB
100
AcDbEntity
  8
035
 62
     3
100
AcDbLine
 10
-86.03276396913058
 20
3.208952224845805
 30
0.0
 11
-84.88972068118304
 21
4.351995512793334
 31
0.0
  0
LINE
  5
C6D14
330
C6BAB
100
AcDbEntity
  8
035
 62
     3
100
AcDbLine
 10
-85.65092630728983
 20
3.208952224845805
 30
0.0
 11
-84.70008589320865
 21
4.159792638926981
 31
0.0
  0
LINE
  5
C6D15
330
C6BAB
100
AcDbEntity
  8
035
 62
     3
100
AcDbLine
 10
-85.26908864544907
 20
3.208952224845805
 30
0.0
 11
-84.51045110523427
 21
3.967589765060611
 31
0.0
  0
LINE
  5
C6D16
330
C6BAB
100
AcDbEntity
  8
035
 62
     3
100
AcDbLine
 10
-84.88725098360834
 20
3.208952224845805
 30
0.0
 11
-84.3208163172599
 21
3.775386891194242
 31
0.0
  0
LINE
  5
C6D17
330
C6BAB
100
AcDbEntity
  8
035
 62
     3
100
AcDbLine
 10
-84.50541332176763
 20
3.208952224845805
 30
0.0
 11
-84.13118152928552
 21
3.583184017327889
 31
0.0
  0
LINE
  5
C6D18
330
C6BAB
100
AcDbEntity
  8
035
 62
     3
100
AcDbLine
 10
-84.12357565992687
 20
3.208952224845805
 30
0.0
 11
-83.94154674131115
 21
3.390981143461519
 31
0.0
  0
LINE
  5
C6D19
330
C6BAB
100
AcDbEntity
  8
035
 62
     3
100
AcDbLine
 10
-96.61306130566368
 20
3.208952224845805
 30
0.0
 11
-96.9653901483543
 21
3.561281067536444
 31
0.0
  0
LINE
  5
C6D1A
330
C6BAB
100
AcDbEntity
  8
035
 62
     3
100
AcDbLine
 10
-98.67526185617409
 20
5.271152775356208
 30
0.0
 11
-99.59400496442746
 21
6.189895883609633
 31
0.0
  0
LINE
  5
C6D1B
330
C6BAB
100
AcDbEntity
  8
035
 62
     3
100
AcDbLine
 10
-97.72460619902732
 20
4.320497118209468
 30
0.0
 11
-98.07258031798365
 21
4.66847123716582
 31
0.0
  0
LINE
  5
C6D1C
330
C6BAB
100
AcDbEntity
  8
035
 62
     3
100
AcDbLine
 10
-98.10644386086803
 20
4.320497118209468
 30
0.0
 11
-98.4544179798244
 21
4.66847123716582
 31
0.0
  0
LINE
  5
C6D1D
330
C6BAB
100
AcDbEntity
  8
035
 62
     3
100
AcDbLine
 10
-98.74455197768698
 20
4.958605235028372
 30
0.0
 11
-99.97584262626817
 21
6.189895883609633
 31
0.0
  0
LINE
  5
C6D1E
330
C6BAB
100
AcDbEntity
  8
035
 62
     3
100
AcDbLine
 10
-98.48828152270881
 20
4.320497118209468
 30
0.0
 11
-100.3576802881089
 21
6.189895883609633
 31
0.0
  0
LINE
  5
C6D1F
330
C6BAB
100
AcDbEntity
  8
035
 62
     3
100
AcDbLine
 10
-98.87011918454952
 20
4.320497118209468
 30
0.0
 11
-100.5606371063987
 21
6.01101504005866
 31
0.0
  0
LINE
  5
C6D20
330
C6BAB
100
AcDbEntity
  8
035
 62
     3
100
AcDbLine
 10
-98.95242234222557
 20
4.020962614044779
 30
0.0
 11
-100.6299272279116
 21
5.69846749973079
 31
0.0
  0
LINE
  5
C6D21
330
C6BAB
100
AcDbEntity
  8
035
 62
     3
100
AcDbLine
 10
-99.02171246373843
 20
3.708415073716909
 30
0.0
 11
-100.6992173494245
 21
5.385919959402936
 31
0.0
  0
LINE
  5
C6D22
330
C6BAB
100
AcDbEntity
  8
035
 62
     3
100
AcDbLine
 10
-101.2329689039609
 20
5.919671513939388
 30
0.0
 11
-101.5031932736311
 21
6.189895883609633
 31
0.0
  0
LINE
  5
C6D23
330
C6BAB
100
AcDbEntity
  8
035
 62
     3
100
AcDbLine
 10
-99.09100258525128
 20
3.395867533389039
 30
0.0
 11
-100.7685074709373
 21
5.073372419075067
 31
0.0
  0
LINE
  5
C6D24
330
C6BAB
100
AcDbEntity
  8
035
 62
     3
100
AcDbLine
 10
-101.3022590254737
 20
5.607123973611502
 30
0.0
 11
-101.8850309354718
 21
6.189895883609633
 31
0.0
  0
LINE
  5
C6D25
330
C6BAB
100
AcDbEntity
  8
035
 62
     3
100
AcDbLine
 10
-99.28592493854885
 20
3.208952224845788
 30
0.0
 11
-100.8377975924502
 21
4.760824878747181
 31
0.0
  0
LINE
  5
C6D26
330
C6BAB
100
AcDbEntity
  8
035
 62
     3
100
AcDbLine
 10
-101.5216326826216
 20
5.444659968918617
 30
0.0
 11
-102.2668685973126
 21
6.189895883609633
 31
0.0
  0
LINE
  5
C6D27
330
C6BAB
100
AcDbEntity
  8
035
 62
     3
100
AcDbLine
 10
-99.66776260038956
 20
3.208952224845788
 30
0.0
 11
-100.9070877139631
 21
4.448277338419311
 31
0.0
  0
LINE
  5
C6D28
330
C6BAB
100
AcDbEntity
  8
035
 62
     3
100
AcDbLine
 10
-101.9034703444624
 20
5.444659968918617
 30
0.0
 11
-102.6487062591533
 21
6.189895883609633
 31
0.0
  0
LINE
  5
C6D29
330
C6BAB
100
AcDbEntity
  8
035
 62
     3
100
AcDbLine
 10
-100.0496002622303
 20
3.208952224845788
 30
0.0
 11
-100.9763778354759
 21
4.135729798091458
 31
0.0
  0
LINE
  5
C6D2A
330
C6BAB
100
AcDbEntity
  8
035
 62
     3
100
AcDbLine
 10
-102.2853080063031
 20
5.444659968918617
 30
0.0
 11
-103.0305439209941
 21
6.189895883609633
 31
0.0
  0
LINE
  5
C6D2B
330
C6BAB
100
AcDbEntity
  8
035
 62
     3
100
AcDbLine
 10
-100.431437924071
 20
3.208952224845788
 30
0.0
 11
-101.0456679569888
 21
3.823182257763588
 31
0.0
  0
LINE
  5
C6D2C
330
C6BAB
100
AcDbEntity
  8
035
 62
     3
100
AcDbLine
 10
-102.6671456681438
 20
5.444659968918617
 30
0.0
 11
-103.4123815828348
 21
6.189895883609633
 31
0.0
  0
LINE
  5
C6D2D
330
C6BAB
100
AcDbEntity
  8
035
 62
     3
100
AcDbLine
 10
-100.8132755859117
 20
3.208952224845788
 30
0.0
 11
-101.1149580785017
 21
3.510634717435735
 31
0.0
  0
LINE
  5
C6D2E
330
C6BAB
100
AcDbEntity
  8
035
 62
     3
100
AcDbLine
 10
-103.0489833299846
 20
5.444659968918617
 30
0.0
 11
-103.7942192446755
 21
6.189895883609633
 31
0.0
  0
LINE
  5
C6D2F
330
C6BAB
100
AcDbEntity
  8
035
 62
     3
100
AcDbLine
 10
-103.3192544181603
 20
5.333093395253618
 30
0.0
 11
-104.1760569065163
 21
6.189895883609633
 31
0.0
  0
LINE
  5
C6D30
330
C6BAB
100
AcDbEntity
  8
035
 62
     3
100
AcDbLine
 10
-103.3885445396732
 20
5.020545854925782
 30
0.0
 11
-104.557894568357
 21
6.189895883609633
 31
0.0
  0
LINE
  5
C6D31
330
C6BAB
100
AcDbEntity
  8
035
 62
     3
100
AcDbLine
 10
-103.457834661186
 20
4.707998314597929
 30
0.0
 11
-104.9397322301977
 21
6.189895883609633
 31
0.0
  0
LINE
  5
C6D32
330
C6BAB
100
AcDbEntity
  8
035
 62
     3
100
AcDbLine
 10
-103.527124782699
 20
4.395450774270076
 30
0.0
 11
-105.3215698920385
 21
6.189895883609633
 31
0.0
  0
LINE
  5
C6D33
330
C6BAB
100
AcDbEntity
  8
035
 62
     3
100
AcDbLine
 10
-103.5964149042118
 20
4.082903233942241
 30
0.0
 11
-105.7034075538792
 21
6.189895883609633
 31
0.0
  0
LINE
  5
C6D34
330
C6BAB
100
AcDbEntity
  8
035
 62
     3
100
AcDbLine
 10
-103.6657050257247
 20
3.770355693614336
 30
0.0
 11
-106.08524521572
 21
6.189895883609633
 31
0.0
  0
LINE
  5
C6D35
330
C6BAB
100
AcDbEntity
  8
035
 62
     3
100
AcDbLine
 10
-103.7349951472376
 20
3.457808153286501
 30
0.0
 11
-105.4125000329236
 21
5.135313038972478
 31
0.0
  0
LINE
  5
C6D36
330
C6BAB
100
AcDbEntity
  8
035
 62
     3
100
AcDbLine
 10
-105.7218469628697
 20
5.444659968918617
 30
0.0
 11
-106.4670828775607
 21
6.189895883609633
 31
0.0
  0
LINE
  5
C6D37
330
C6BAB
100
AcDbEntity
  8
035
 62
     3
100
AcDbLine
 10
-103.8679768806377
 20
3.208952224845856
 30
0.0
 11
-105.4817901544364
 21
4.822765498644625
 31
0.0
  0
LINE
  5
C6D38
330
C6BAB
100
AcDbEntity
  8
035
 62
     3
100
AcDbLine
 10
-106.1036846247104
 20
5.444659968918617
 30
0.0
 11
-106.8489205394014
 21
6.189895883609633
 31
0.0
  0
LINE
  5
C6D39
330
C6BAB
100
AcDbEntity
  8
035
 62
     3
100
AcDbLine
 10
-104.2498145424784
 20
3.208952224845856
 30
0.0
 11
-105.5510802759493
 21
4.510217958316772
 31
0.0
  0
LINE
  5
C6D3A
330
C6BAB
100
AcDbEntity
  8
035
 62
     3
100
AcDbLine
 10
-106.4855222865511
 20
5.444659968918617
 30
0.0
 11
-107.076084717482
 21
6.035222399849518
 31
0.0
  0
LINE
  5
C6D3B
330
C6BAB
100
AcDbEntity
  8
035
 62
     3
100
AcDbLine
 10
-104.6316522043191
 20
3.208952224845856
 30
0.0
 11
-105.6203703974622
 21
4.197670417988919
 31
0.0
  0
LINE
  5
C6D3C
330
C6BAB
100
AcDbEntity
  8
035
 62
     3
100
AcDbLine
 10
-107.5893144275359
 20
6.166614448062634
 30
0.0
 11
-107.6125958630829
 21
6.189895883609617
 31
0.0
  0
LINE
  5
C6D3D
330
C6BAB
100
AcDbEntity
  8
035
 62
     3
100
AcDbLine
 10
-106.8673599483919
 20
5.444659968918617
 30
0.0
 11
-107.1453748389949
 21
5.722674859521649
 31
0.0
  0
LINE
  5
C6D3E
330
C6BAB
100
AcDbEntity
  8
035
 62
     3
100
AcDbLine
 10
-105.0134898661599
 20
3.208952224845856
 30
0.0
 11
-105.6896605189751
 21
3.885122877661015
 31
0.0
  0
LINE
  5
C6D3F
330
C6BAB
100
AcDbEntity
  8
035
 62
     3
100
AcDbLine
 10
-107.6586045490488
 20
5.854066907734747
 30
0.0
 11
-107.9944335249236
 21
6.189895883609617
 31
0.0
  0
LINE
  5
C6D40
330
C6BAB
100
AcDbEntity
  8
035
 62
     3
100
AcDbLine
 10
-105.3953275280006
 20
3.208952224845856
 30
0.0
 11
-105.7589506404879
 21
3.572575337333162
 31
0.0
  0
LINE
  5
C6D41
330
C6BAB
100
AcDbEntity
  8
035
 62
     3
100
AcDbLine
 10
-107.7278946705616
 20
5.541519367406894
 30
0.0
 11
-108.3762711867644
 21
6.189895883609617
 31
0.0
  0
LINE
  5
C6D42
330
C6BAB
100
AcDbEntity
  8
035
 62
     3
100
AcDbLine
 10
-105.7771651898414
 20
3.208952224845856
 30
0.0
 11
-105.8282407620008
 21
3.260027797005309
 31
0.0
  0
LINE
  5
C6D43
330
C6BAB
100
AcDbEntity
  8
035
 62
     3
100
AcDbLine
 10
-107.7971847920745
 20
5.228971827079041
 30
0.0
 11
-108.7581088486051
 21
6.189895883609617
 31
0.0
  0
LINE
  5
C6D44
330
C6BAB
100
AcDbEntity
  8
035
 62
     3
100
AcDbLine
 10
-107.8664749135874
 20
4.916424286751189
 30
0.0
 11
-109.1399465104458
 21
6.189895883609617
 31
0.0
  0
LINE
  5
C6D45
330
C6BAB
100
AcDbEntity
  8
035
 62
     3
100
AcDbLine
 10
-107.9357650351003
 20
4.603876746423336
 30
0.0
 11
-109.5217841722865
 21
6.189895883609617
 31
0.0
  0
LINE
  5
C6D46
330
C6BAB
100
AcDbEntity
  8
035
 62
     3
100
AcDbLine
 10
-108.0050551566132
 20
4.291329206095449
 30
0.0
 11
-109.6783213452183
 21
5.964595394700538
 31
0.0
  0
LINE
  5
C6D47
330
C6BAB
100
AcDbEntity
  8
035
 62
     3
100
AcDbLine
 10
-108.074345278126
 20
3.978781665767596
 30
0.0
 11
-109.7476114667311
 21
5.652047854372701
 31
0.0
  0
LINE
  5
C6D48
330
C6BAB
100
AcDbEntity
  8
035
 62
     3
100
AcDbLine
 10
-108.2318653798715
 20
3.754464105672392
 30
0.0
 11
-109.816901588244
 21
5.339500314044849
 31
0.0
  0
LINE
  5
C6D49
330
C6BAB
100
AcDbEntity
  8
035
 62
     3
100
AcDbLine
 10
-108.4674968942431
 20
3.608257958203168
 30
0.0
 11
-109.8861917097569
 21
5.026952773717013
 31
0.0
  0
LINE
  5
C6D4A
330
C6BAB
100
AcDbEntity
  8
035
 62
     3
100
AcDbLine
 10
-108.7252521362114
 20
3.484175538330797
 30
0.0
 11
-109.9554818312698
 21
4.714405233389177
 31
0.0
  0
LINE
  5
C6D4B
330
C6BAB
100
AcDbEntity
  8
035
 62
     3
100
AcDbLine
 10
-109.0078270096099
 20
3.384912749888471
 30
0.0
 11
-110.0247719527827
 21
4.40185769306129
 31
0.0
  0
LINE
  5
C6D4C
330
C6BAB
100
AcDbEntity
  8
035
 62
     3
100
AcDbLine
 10
-109.3102160670833
 20
3.305464145521201
 30
0.0
 11
-110.1459810757661
 21
4.141229154203941
 31
0.0
  0
LINE
  5
C6D4D
330
C6BAB
100
AcDbEntity
  8
035
 62
     3
100
AcDbLine
 10
-111.9460925654814
 20
5.941340643919252
 30
0.0
 11
-112.1946478051717
 21
6.189895883609617
 31
0.0
  0
LINE
  5
C6D4E
330
C6BAB
100
AcDbEntity
  8
035
 62
     3
100
AcDbLine
 10
-109.6270622842185
 20
3.240472700815606
 30
0.0
 11
-110.3818242088334
 21
3.995234625430574
 31
0.0
  0
LINE
  5
C6D4F
330
C6BAB
100
AcDbEntity
  8
035
 62
     3
100
AcDbLine
 10
-112.0153826869942
 20
5.628793103591382
 30
0.0
 11
-112.5764854670125
 21
6.189895883609617
 31
0.0
  0
LINE
  5
C6D50
330
C6BAB
100
AcDbEntity
  8
035
 62
     3
100
AcDbLine
 10
-109.9600312549295
 20
3.191604009685929
 30
0.0
 11
-110.6755499491455
 21
3.907122703901885
 31
0.0
  0
LINE
  5
C6D51
330
C6BAB
100
AcDbEntity
  8
035
 62
     3
100
AcDbLine
 10
-112.0846728085071
 20
5.316245563263512
 30
0.0
 11
-112.9583231288532
 21
6.189895883609617
 31
0.0
  0
LINE
  5
C6D52
330
C6BAB
100
AcDbEntity
  8
035
 62
     3
100
AcDbLine
 10
-110.306216975018
 20
3.155952067933716
 30
0.0
 11
-111.015833047888
 21
3.865568140803733
 31
0.0
  0
LINE
  5
C6D53
330
C6BAB
100
AcDbEntity
  8
035
 62
     3
100
AcDbLine
 10
-112.15396293002
 20
5.003698022935642
 30
0.0
 11
-113.340160790694
 21
6.189895883609617
 31
0.0
  0
LINE
  5
C6D54
330
C6BAB
100
AcDbEntity
  8
035
 62
     3
100
AcDbLine
 10
-110.6631006610069
 20
3.130998092081782
 30
0.0
 11
-111.4029055697653
 21
3.870803000840291
 31
0.0
  0
LINE
  5
C6D55
330
C6BAB
100
AcDbEntity
  8
035
 62
     3
100
AcDbLine
 10
-112.2232530515328
 20
4.691150482607739
 30
0.0
 11
-113.7219984525347
 21
6.189895883609617
 31
0.0
  0
LINE
  5
C6D56
330
C6BAB
100
AcDbEntity
  8
035
 62
     3
100
AcDbLine
 10
-111.0316546162849
 20
3.117714385519039
 30
0.0
 11
-111.8764555530201
 21
3.962515322254316
 31
0.0
  0
LINE
  5
C6D57
330
C6BAB
100
AcDbEntity
  8
035
 62
     3
100
AcDbLine
 10
-112.2925431730457
 20
4.378602942279852
 30
0.0
 11
-113.9658233383848
 21
6.051883107619053
 31
0.0
  0
LINE
  5
C6D58
330
C6BAB
100
AcDbEntity
  8
035
 62
     3
100
AcDbLine
 10
-111.413054971071
 20
3.117277078464454
 30
0.0
 11
-114.0351134598977
 21
5.739335567291201
 31
0.0
  0
LINE
  5
C6D59
330
C6BAB
100
AcDbEntity
  8
035
 62
     3
100
AcDbLine
 10
-111.8087459043527
 20
3.131130349905427
 30
0.0
 11
-114.1044035814106
 21
5.426788026963347
 31
0.0
  0
LINE
  5
C6D5A
330
C6BAB
100
AcDbEntity
  8
035
 62
     3
100
AcDbLine
 10
-114.866905802177
 20
6.189290247729738
 30
0.0
 11
-114.8675114380569
 21
6.189895883609617
 31
0.0
  0
LINE
  5
C6D5B
330
C6BAB
100
AcDbEntity
  8
035
 62
     3
100
AcDbLine
 10
-112.2205328597373
 20
3.161079643449338
 30
0.0
 11
-114.1736937029235
 21
5.114240486635495
 31
0.0
  0
LINE
  5
C6D5C
330
C6BAB
100
AcDbEntity
  8
035
 62
     3
100
AcDbLine
 10
-114.9361959236899
 20
5.876742707401902
 30
0.0
 11
-115.2493490998976
 21
6.189895883609617
 31
0.0
  0
LINE
  5
C6D5D
330
C6BAB
100
AcDbEntity
  8
035
 62
     3
100
AcDbLine
 10
-112.6513507175187
 20
3.210059839389922
 30
0.0
 11
-114.2429838244363
 21
4.801692946307591
 31
0.0
  0
LINE
  5
C6D5E
330
C6BAB
100
AcDbEntity
  8
035
 62
     3
100
AcDbLine
 10
-115.103212642782
 20
5.661921764653223
 30
0.0
 11
-115.6311867617384
 21
6.189895883609617
 31
0.0
  0
LINE
  5
C6D5F
330
C6BAB
100
AcDbEntity
  8
035
 62
     3
100
AcDbLine
 10
-113.1194367693143
 20
3.296308229344779
 30
0.0
 11
-114.3122739459492
 21
4.489145405979738
 31
0.0
  0
LINE
  5
C6D60
330
C6BAB
100
AcDbEntity
  8
035
 62
     3
100
AcDbLine
 10
-115.4850503046227
 20
5.661921764653223
 30
0.0
 11
-116.0130244235791
 21
6.189895883609617
 31
0.0
  0
LINE
  5
C6D61
330
C6BAB
100
AcDbEntity
  8
035
 62
     3
100
AcDbLine
 10
-113.6532843618162
 20
3.448318160005939
 30
0.0
 11
-114.3815640674621
 21
4.176597865651885
 31
0.0
  0
LINE
  5
C6D62
330
C6BAB
100
AcDbEntity
  8
035
 62
     3
100
AcDbLine
 10
-115.8668879664634
 20
5.661921764653223
 30
0.0
 11
-116.3948620854198
 21
6.189895883609617
 31
0.0
  0
LINE
  5
C6D63
330
C6BAB
100
AcDbEntity
  8
035
 62
     3
100
AcDbLine
 10
-115.4421070759712
 20
4.855303212320277
 30
0.0
 11
-115.4602149773569
 21
4.873411113705938
 31
0.0
  0
LINE
  5
C6D64
330
C6BAB
100
AcDbEntity
  8
035
 62
     3
100
AcDbLine
 10
-116.2487256283041
 20
5.661921764653223
 30
0.0
 11
-116.7766997472606
 21
6.189895883609617
 31
0.0
  0
LINE
  5
C6D65
330
C6BAB
100
AcDbEntity
  8
035
 62
     3
100
AcDbLine
 10
-115.5113971974841
 20
4.542755671992424
 30
0.0
 11
-115.8420526391976
 21
4.873411113705938
 31
0.0
  0
LINE
  5
C6D66
330
C6BAB
100
AcDbEntity
  8
035
 62
     3
100
AcDbLine
 10
-116.6305632901449
 20
5.661921764653223
 30
0.0
 11
-117.1585374091013
 21
6.189895883609617
 31
0.0
  0
LINE
  5
C6D67
330
C6BAB
100
AcDbEntity
  8
035
 62
     3
100
AcDbLine
 10
-115.875916182082
 20
4.52543699474962
 30
0.0
 11
-116.2238903010383
 21
4.873411113705938
 31
0.0
  0
LINE
  5
C6D68
330
C6BAB
100
AcDbEntity
  8
035
 62
     3
100
AcDbLine
 10
-117.0124009519857
 20
5.661921764653223
 30
0.0
 11
-117.5403750709421
 21
6.189895883609617
 31
0.0
  0
LINE
  5
C6D69
330
C6BAB
100
AcDbEntity
  8
035
 62
     3
100
AcDbLine
 10
-115.4212267742799
 20
3.688909925106813
 30
0.0
 11
-115.4692431929753
 21
3.736926343802164
 31
0.0
  0
LINE
  5
C6D6A
330
C6BAB
100
AcDbEntity
  8
035
 62
     3
100
AcDbLine
 10
-117.3942386138264
 20
5.661921764653223
 30
0.0
 11
-117.9222127327828
 21
6.189895883609617
 31
0.0
  0
LINE
  5
C6D6B
330
C6BAB
100
AcDbEntity
  8
035
 62
     3
100
AcDbLine
 10
-116.2577538439228
 20
4.52543699474962
 30
0.0
 11
-116.6057279628791
 21
4.873411113705938
 31
0.0
  0
LINE
  5
C6D6C
330
C6BAB
100
AcDbEntity
  8
035
 62
     3
100
AcDbLine
 10
-115.4905168957928
 20
3.376362384778976
 30
0.0
 11
-115.8510808548161
 21
3.736926343802164
 31
0.0
  0
LINE
  5
C6D6D
330
C6BAB
100
AcDbEntity
  8
035
 62
     3
100
AcDbLine
 10
-117.7760762756671
 20
5.661921764653223
 30
0.0
 11
-118.3040503946235
 21
6.189895883609617
 31
0.0
  0
LINE
  5
C6D6E
330
C6BAB
100
AcDbEntity
  8
035
 62
     3
100
AcDbLine
 10
-116.6395915057635
 20
4.52543699474962
 30
0.0
 11
-116.9875656247198
 21
4.873411113705938
 31
0.0
  0
LINE
  5
C6D6F
330
C6BAB
100
AcDbEntity
  8
035
 62
     3
100
AcDbLine
 10
-115.7049443977005
 20
3.20895222484589
 30
0.0
 11
-116.2329185166568
 21
3.736926343802164
 31
0.0
  0
LINE
  5
C6D70
330
C6BAB
100
AcDbEntity
  8
035
 62
     3
100
AcDbLine
 10
-118.1579139375078
 20
5.661921764653206
 30
0.0
 11
-118.6858880564642
 21
6.189895883609617
 31
0.0
  0
LINE
  5
C6D71
330
C6BAB
100
AcDbEntity
  8
035
 62
     3
100
AcDbLine
 10
-117.0214291676042
 20
4.52543699474962
 30
0.0
 11
-117.3694032865606
 21
4.873411113705938
 31
0.0
  0
LINE
  5
C6D72
330
C6BAB
100
AcDbEntity
  8
035
 62
     3
100
AcDbLine
 10
-116.0867820595412
 20
3.20895222484589
 30
0.0
 11
-116.6147561784975
 21
3.736926343802164
 31
0.0
  0
LINE
  5
C6D73
330
C6BAB
100
AcDbEntity
  8
035
 62
     3
100
AcDbLine
 10
-118.5266055777307
 20
5.648775743035363
 30
0.0
 11
-119.067725718305
 21
6.189895883609617
 31
0.0
  0
LINE
  5
C6D74
330
C6BAB
100
AcDbEntity
  8
035
 62
     3
100
AcDbLine
 10
-117.403266829445
 20
4.52543699474962
 30
0.0
 11
-117.7512409484013
 21
4.873411113705938
 31
0.0
  0
LINE
  5
C6D75
330
C6BAB
100
AcDbEntity
  8
035
 62
     3
100
AcDbLine
 10
-116.468619721382
 20
3.20895222484589
 30
0.0
 11
-116.9965938403382
 21
3.736926343802164
 31
0.0
  0
LINE
  5
C6D76
330
C6BAB
100
AcDbEntity
  8
035
 62
     3
100
AcDbLine
 10
-118.5958956992436
 20
5.336228202707511
 30
0.0
 11
-119.4495633801457
 21
6.189895883609617
 31
0.0
  0
LINE
  5
C6D77
330
C6BAB
100
AcDbEntity
  8
035
 62
     3
100
AcDbLine
 10
-117.7851044912857
 20
4.52543699474962
 30
0.0
 11
-118.133078610242
 21
4.873411113705938
 31
0.0
  0
LINE
  5
C6D78
330
C6BAB
100
AcDbEntity
  8
035
 62
     3
100
AcDbLine
 10
-116.8504573832227
 20
3.20895222484589
 30
0.0
 11
-117.378431502179
 21
3.736926343802164
 31
0.0
  0
LINE
  5
C6D79
330
C6BAB
100
AcDbEntity
  8
035
 62
     3
100
AcDbLine
 10
-118.6651858207566
 20
5.023680662379692
 30
0.0
 11
-119.8314010419865
 21
6.189895883609617
 31
0.0
  0
LINE
  5
C6D7A
330
C6BAB
100
AcDbEntity
  8
035
 62
     3
100
AcDbLine
 10
-118.1669421531264
 20
4.52543699474962
 30
0.0
 11
-118.5149162720827
 21
4.873411113705938
 31
0.0
  0
LINE
  5
C6D7B
330
C6BAB
100
AcDbEntity
  8
035
 62
     3
100
AcDbLine
 10
-117.2322950450634
 20
3.20895222484589
 30
0.0
 11
-117.7602691640197
 21
3.736926343802164
 31
0.0
  0
LINE
  5
C6D7C
330
C6BAB
100
AcDbEntity
  8
035
 62
     3
100
AcDbLine
 10
-118.5487798149672
 20
4.52543699474962
 30
0.0
 11
-120.2132387038272
 21
6.189895883609617
 31
0.0
  0
LINE
  5
C6D7D
330
C6BAB
100
AcDbEntity
  8
035
 62
     3
100
AcDbLine
 10
-117.6141327069041
 20
3.20895222484589
 30
0.0
 11
-118.1421068258605
 21
3.736926343802164
 31
0.0
  0
LINE
  5
C6D7E
330
C6BAB
100
AcDbEntity
  8
035
 62
     3
100
AcDbLine
 10
-118.8037660637822
 20
4.398585581723918
 30
0.0
 11
-120.4812709494682
 21
6.076090467409912
 31
0.0
  0
LINE
  5
C6D7F
330
C6BAB
100
AcDbEntity
  8
035
 62
     3
100
AcDbLine
 10
-117.9959703687449
 20
3.20895222484589
 30
0.0
 11
-118.5239444877012
 21
3.736926343802164
 31
0.0
  0
LINE
  5
C6D80
330
C6BAB
100
AcDbEntity
  8
035
 62
     3
100
AcDbLine
 10
-118.8730561852951
 20
4.086038041396014
 30
0.0
 11
-120.550561070981
 21
5.763542927082042
 31
0.0
  0
LINE
  5
C6D81
330
C6BAB
100
AcDbEntity
  8
035
 62
     3
100
AcDbLine
 10
-118.3778080305857
 20
3.20895222484589
 30
0.0
 11
-118.9057821495419
 21
3.736926343802164
 31
0.0
  0
LINE
  5
C6D82
330
C6BAB
100
AcDbEntity
  8
035
 62
     3
100
AcDbLine
 10
-118.9423463068079
 20
3.773490501068076
 30
0.0
 11
-120.6198511924939
 21
5.450995386754138
 31
0.0
  0
LINE
  5
C6D83
330
C6BAB
100
AcDbEntity
  8
035
 62
     3
100
AcDbLine
 10
-118.7596456924264
 20
3.20895222484589
 30
0.0
 11
-120.6891413140068
 21
5.138447846426285
 31
0.0
  0
LINE
  5
C6D84
330
C6BAB
100
AcDbEntity
  8
035
 62
     3
100
AcDbLine
 10
-121.5278937568498
 20
5.97720028926935
 30
0.0
 11
-121.7405893511902
 21
6.189895883609617
 31
0.0
  0
LINE
  5
C6D85
330
C6BAB
100
AcDbEntity
  8
035
 62
     3
100
AcDbLine
 10
-119.1414833542671
 20
3.20895222484589
 30
0.0
 11
-120.7584314355197
 21
4.825900306098415
 31
0.0
  0
LINE
  5
C6D86
330
C6BAB
100
AcDbEntity
  8
035
 62
     3
100
AcDbLine
 10
-121.5971838783627
 20
5.66465274894148
 30
0.0
 11
-122.1224270130309
 21
6.189895883609617
 31
0.0
  0
LINE
  5
C6D87
330
C6BAB
100
AcDbEntity
  8
035
 62
     3
100
AcDbLine
 10
-119.5233210161078
 20
3.20895222484589
 30
0.0
 11
-120.8277215570325
 21
4.513352765770562
 31
0.0
  0
LINE
  5
C6D88
330
C6BAB
100
AcDbEntity
  8
035
 62
     3
100
AcDbLine
 10
-121.6664739998756
 20
5.352105208613627
 30
0.0
 11
-122.5042646748716
 21
6.189895883609617
 31
0.0
  0
LINE
  5
C6D89
330
C6BAB
100
AcDbEntity
  8
035
 62
     3
100
AcDbLine
 10
-119.9051586779485
 20
3.20895222484589
 30
0.0
 11
-120.8970116785454
 21
4.200805225442692
 31
0.0
  0
LINE
  5
C6D8A
330
C6BAB
100
AcDbEntity
  8
035
 62
     3
100
AcDbLine
 10
-121.7357641213884
 20
5.039557668285757
 30
0.0
 11
-122.8861023367123
 21
6.189895883609617
 31
0.0
  0
LINE
  5
C6D8B
330
C6BAB
100
AcDbEntity
  8
035
 62
     3
100
AcDbLine
 10
-120.2869963397893
 20
3.20895222484589
 30
0.0
 11
-120.9663018000583
 21
3.888257685114789
 31
0.0
  0
LINE
  5
C6D8C
330
C6BAB
100
AcDbEntity
  8
035
 62
     3
100
AcDbLine
 10
-121.8050542429013
 20
4.72701012795787
 30
0.0
 11
-123.2679399985531
 21
6.189895883609617
 31
0.0
  0
LINE
  5
C6D8D
330
C6BAB
100
AcDbEntity
  8
035
 62
     3
100
AcDbLine
 10
-120.6688340016301
 20
3.20895222484589
 30
0.0
 11
-121.0355919215711
 21
3.575710144786936
 31
0.0
  0
LINE
  5
C6D8E
330
C6BAB
100
AcDbEntity
  8
035
 62
     3
100
AcDbLine
 10
-121.8743443644142
 20
4.41446258763
 30
0.0
 11
-123.5518492501002
 21
6.091967473315994
 31
0.0
  0
LINE
  5
C6D8F
330
C6BAB
100
AcDbEntity
  8
035
 62
     3
100
AcDbLine
 10
-121.0506716634708
 20
3.20895222484589
 30
0.0
 11
-121.104882043084
 21
3.263162604459066
 31
0.0
  0
LINE
  5
C6D90
330
C6BAB
100
AcDbEntity
  8
035
 62
     3
100
AcDbLine
 10
-121.9436344859271
 20
4.101915047302147
 30
0.0
 11
-123.621139371613
 21
5.779419932988158
 31
0.0
  0
LINE
  5
C6D91
330
C6BAB
100
AcDbEntity
  8
035
 62
     3
100
AcDbLine
 10
-122.0129246074399
 20
3.789367506974278
 30
0.0
 11
-123.690429493126
 21
5.466872392660323
 31
0.0
  0
LINE
  5
C6D92
330
C6BAB
100
AcDbEntity
  8
035
 62
     3
100
AcDbLine
 10
-122.0822147289528
 20
3.476819966646425
 30
0.0
 11
-123.7597196146388
 21
5.15432485233247
 31
0.0
  0
LINE
  5
C6D93
330
C6BAB
100
AcDbEntity
  8
035
 62
     3
100
AcDbLine
 10
-122.196184648993
 20
3.208952224845873
 30
0.0
 11
-124.0004708074383
 21
5.013238383291186
 31
0.0
  0
LINE
  5
C6D94
330
C6BAB
100
AcDbEntity
  8
035
 62
     3
100
AcDbLine
 10
-122.5780223108337
 20
3.208952224845873
 30
0.0
 11
-125.2889363855326
 21
5.919866299544745
 31
0.0
  0
LINE
  5
C6D95
330
C6BAB
100
AcDbEntity
  8
035
 62
     3
100
AcDbLine
 10
-122.9598599726744
 20
3.208952224845873
 30
0.0
 11
-125.9408036314382
 21
6.189895883609617
 31
0.0
  0
LINE
  5
C6D96
330
C6BAB
100
AcDbEntity
  8
035
 62
     3
100
AcDbLine
 10
-123.3416976345152
 20
3.208952224845873
 30
0.0
 11
-126.3226412932789
 21
6.189895883609617
 31
0.0
  0
LINE
  5
C6D97
330
C6BAB
100
AcDbEntity
  8
035
 62
     3
100
AcDbLine
 10
-123.7235352963559
 20
3.208952224845873
 30
0.0
 11
-126.7044789551197
 21
6.189895883609617
 31
0.0
  0
LINE
  5
C6D98
330
C6BAB
100
AcDbEntity
  8
035
 62
     3
100
AcDbLine
 10
-124.1053729581967
 20
3.208952224845873
 30
0.0
 11
-127.0863166169604
 21
6.189895883609617
 31
0.0
  0
LINE
  5
C6D99
330
C6BAB
100
AcDbEntity
  8
035
 62
     3
100
AcDbLine
 10
-124.6372375678725
 20
3.358979172680906
 30
0.0
 11
-127.4681542788012
 21
6.189895883609617
 31
0.0
  0
LINE
  5
C6D9A
330
C6BAB
100
AcDbEntity
  8
035
 62
     3
100
AcDbLine
 10
-126.3727965828109
 20
4.712700525778709
 30
0.0
 11
-127.8499919406419
 21
6.189895883609617
 31
0.0
  0
LINE
  5
C6D9B
330
C6BAB
100
AcDbEntity
  8
035
 62
     3
100
AcDbLine
 10
-126.4420867043238
 20
4.400152985450856
 30
0.0
 11
-128.1195915900098
 21
6.077657871136866
 31
0.0
  0
LINE
  5
C6D9C
330
C6BAB
100
AcDbEntity
  8
035
 62
     3
100
AcDbLine
 10
-126.5113768258367
 20
4.087605445123003
 30
0.0
 11
-128.1888817115227
 21
5.765110330808997
 31
0.0
  0
LINE
  5
C6D9D
330
C6BAB
100
AcDbEntity
  8
035
 62
     3
100
AcDbLine
 10
-126.5806669473496
 20
3.77505790479515
 30
0.0
 11
-128.2581718330356
 21
5.452562790481144
 31
0.0
  0
LINE
  5
C6D9E
330
C6BAB
100
AcDbEntity
  8
035
 62
     3
100
AcDbLine
 10
-126.6499570688625
 20
3.462510364467263
 30
0.0
 11
-128.3274619545485
 21
5.14001525015324
 31
0.0
  0
LINE
  5
C6D9F
330
C6BAB
100
AcDbEntity
  8
035
 62
     3
100
AcDbLine
 10
-126.7782365910818
 20
3.208952224845856
 30
0.0
 11
-128.3967520760613
 21
4.827467709825387
 31
0.0
  0
LINE
  5
C6DA0
330
C6BAB
100
AcDbEntity
  8
035
 62
     3
100
AcDbLine
 10
-127.1600742529226
 20
3.208952224845856
 30
0.0
 11
-128.4660421975742
 21
4.514920169497517
 31
0.0
  0
LINE
  5
C6DA1
330
C6BAB
100
AcDbEntity
  8
035
 62
     3
100
AcDbLine
 10
-127.5419119147633
 20
3.208952224845856
 30
0.0
 11
-128.535332319087
 21
4.202372629169664
 31
0.0
  0
LINE
  5
C6DA2
330
C6BAB
100
AcDbEntity
  8
035
 62
     3
100
AcDbLine
 10
-127.923749576604
 20
3.208952224845856
 30
0.0
 11
-128.6046224405999
 21
3.889825088841794
 31
0.0
  0
LINE
  5
C6DA3
330
C6BAB
100
AcDbEntity
  8
035
 62
     3
100
AcDbLine
 10
-128.3055872384448
 20
3.208952224845856
 30
0.0
 11
-128.6739125621128
 21
3.577277548513907
 31
0.0
  0
LINE
  5
C6DA4
330
C6BAB
100
AcDbEntity
  8
035
 62
     3
100
AcDbLine
 10
-128.6874249002855
 20
3.208952224845856
 30
0.0
 11
-128.7432026836257
 21
3.264730008186037
 31
0.0
  0
LINE
  5
C6DA5
330
C6BAB
100
AcDbEntity
  8
035
 62
     3
100
AcDbLine
 10
-96.23122364382293
 20
3.208952224845805
 30
0.0
 11
-96.94084143973864
 21
3.918570020761515
 31
0.0
  0
LINE
  5
C6DA6
330
C6BAB
100
AcDbEntity
  8
035
 62
     3
100
AcDbLine
 10
-98.60597173466118
 20
5.583700315684026
 30
0.0
 11
-99.21216730258672
 21
6.189895883609633
 31
0.0
  0
LINE
  5
C6DA7
330
C6BAB
100
AcDbEntity
  8
035
 62
     3
100
AcDbLine
 10
-97.34276853718657
 20
4.320497118209468
 30
0.0
 11
-97.69074265614294
 21
4.66847123716582
 31
0.0
  0
LINE
  5
C6DA8
330
C6BAB
100
AcDbEntity
  8
035
 62
     3
100
AcDbLine
 10
-95.8493859819822
 20
3.208952224845805
 30
0.0
 11
-97.30890499430223
 21
4.66847123716582
 31
0.0
  0
LINE
  5
C6DA9
330
C6BAB
100
AcDbEntity
  8
035
 62
     3
100
AcDbLine
 10
-98.3023555217896
 20
5.661921764653223
 30
0.0
 11
-98.83032964074601
 21
6.189895883609633
 31
0.0
  0
LINE
  5
C6DAA
330
C6BAB
100
AcDbEntity
  8
035
 62
     3
100
AcDbLine
 10
-95.46754832014149
 20
3.208952224845805
 30
0.0
 11
-96.98458557506103
 21
4.725989479765391
 31
0.0
  0
LINE
  5
C6DAB
330
C6BAB
100
AcDbEntity
  8
035
 62
     3
100
AcDbLine
 10
-97.92051785994889
 20
5.661921764653223
 30
0.0
 11
-98.44849197890527
 21
6.189895883609633
 31
0.0
  0
LINE
  5
C6DAC
330
C6BAB
100
AcDbEntity
  8
035
 62
     3
100
AcDbLine
 10
-95.08571065830073
 20
3.208952224845805
 30
0.0
 11
-96.7409576365441
 21
4.864199203089166
 31
0.0
  0
LINE
  5
C6DAD
330
C6BAB
100
AcDbEntity
  8
035
 62
     3
100
AcDbLine
 10
-97.53868019810811
 20
5.661921764653223
 30
0.0
 11
-98.06665431706452
 21
6.189895883609633
 31
0.0
  0
LINE
  5
C6DAE
330
C6BAB
100
AcDbEntity
  8
035
 62
     3
100
AcDbLine
 10
-94.91472869962331
 20
3.419807928009143
 30
0.0
 11
-96.57521478599688
 21
5.080294014382692
 31
0.0
  0
LINE
  5
C6DAF
330
C6BAB
100
AcDbEntity
  8
035
 62
     3
100
AcDbLine
 10
-97.1568425362674
 20
5.661921764653223
 30
0.0
 11
-97.68481665522378
 21
6.189895883609633
 31
0.0
  0
LINE
  5
C6DB0
330
C6BAB
100
AcDbEntity
  8
035
 62
     3
100
AcDbLine
 10
-94.90006866349938
 20
3.786985553725943
 30
0.0
 11
-96.59083002526699
 21
5.477746915493557
 31
0.0
  0
LINE
  5
C6DB1
330
C6BAB
100
AcDbEntity
  8
035
 62
     3
100
AcDbLine
 10
-96.7384965251392
 20
5.625413415365752
 30
0.0
 11
-97.30297899338307
 21
6.189895883609633
 31
0.0
  0
LINE
  5
C6DB2
330
C6BAB
100
AcDbEntity
  8
035
 62
     3
100
AcDbLine
 10
-94.87511304029746
 20
4.14386759236473
 30
0.0
 11
-96.92114133154232
 21
6.189895883609633
 31
0.0
  0
LINE
  5
C6DB3
330
C6BAB
100
AcDbEntity
  8
035
 62
     3
100
AcDbLine
 10
-93.55836001093781
 20
3.208952224845805
 30
0.0
 11
-93.85092844777942
 21
3.501520661687422
 31
0.0
  0
LINE
  5
C6DB4
330
C6BAB
100
AcDbEntity
  8
035
 62
     3
100
AcDbLine
 10
-94.9444966357605
 20
4.595088849668494
 30
0.0
 11
-96.53930366970161
 21
6.189895883609633
 31
0.0
  0
LINE
  5
C6DB5
330
C6BAB
100
AcDbEntity
  8
035
 62
     3
100
AcDbLine
 10
-93.17652234909704
 20
3.208952224845805
 30
0.0
 11
-93.78163832626652
 21
3.814068202015309
 31
0.0
  0
LINE
  5
C6DB6
330
C6BAB
100
AcDbEntity
  8
035
 62
     3
100
AcDbLine
 10
-94.71039504921661
 20
4.742824924965364
 30
0.0
 11
-96.15746600786081
 21
6.189895883609633
 31
0.0
  0
LINE
  5
C6DB7
330
C6BAB
100
AcDbEntity
  8
035
 62
     3
100
AcDbLine
 10
-92.79468468725628
 20
3.208952224845805
 30
0.0
 11
-93.71234820475365
 21
4.126615742343179
 31
0.0
  0
LINE
  5
C6DB8
330
C6BAB
100
AcDbEntity
  8
035
 62
     3
100
AcDbLine
 10
-94.50809178148313
 20
4.922359319072645
 30
0.0
 11
-95.7756283460201
 21
6.189895883609633
 31
0.0
  0
LINE
  5
C6DB9
330
C6BAB
100
AcDbEntity
  8
035
 62
     3
100
AcDbLine
 10
-92.41284702541557
 20
3.208952224845805
 30
0.0
 11
-93.64305808324081
 21
4.439163282671032
 31
0.0
  0
LINE
  5
C6DBA
330
C6BAB
100
AcDbEntity
  8
035
 62
     3
100
AcDbLine
 10
-94.34602045178769
 20
5.142125651217921
 30
0.0
 11
-95.39379068417938
 21
6.189895883609633
 31
0.0
  0
LINE
  5
C6DBB
330
C6BAB
100
AcDbEntity
  8
035
 62
     3
100
AcDbLine
 10
-92.03100936357484
 20
3.208952224845805
 30
0.0
 11
-93.57376796172792
 21
4.751710822998885
 31
0.0
  0
LINE
  5
C6DBC
330
C6BAB
100
AcDbEntity
  8
035
 62
     3
100
AcDbLine
 10
-94.24335226951132
 20
5.421295130782292
 30
0.0
 11
-94.98192162652081
 21
6.159864487791789
 31
0.0
  0
LINE
  5
C6DBD
330
C6BAB
100
AcDbEntity
  8
035
 62
     3
100
AcDbLine
 10
-91.82697295452905
 20
3.386753477640743
 30
0.0
 11
-93.50447784021506
 21
5.064258363326738
 31
0.0
  0
LINE
  5
C6DBE
330
C6BAB
100
AcDbEntity
  8
035
 62
     3
100
AcDbLine
 10
-91.7576828330162
 20
3.699301017968648
 30
0.0
 11
-93.43518771870217
 21
5.376805903654641
 31
0.0
  0
LINE
  5
C6DBF
330
C6BAB
100
AcDbEntity
  8
035
 62
     3
100
AcDbLine
 10
-91.68839271150334
 20
4.011848558296501
 30
0.0
 11
-93.36589759718931
 21
5.689353443982493
 31
0.0
  0
LINE
  5
C6DC0
330
C6BAB
100
AcDbEntity
  8
035
 62
     3
100
AcDbLine
 10
-90.50365871621186
 20
3.208952224845788
 30
0.0
 11
-90.62784970299416
 21
3.333143211628126
 31
0.0
  0
LINE
  5
C6DC1
330
C6BAB
100
AcDbEntity
  8
035
 62
     3
100
AcDbLine
 10
-91.61910258999045
 20
4.324396098624371
 30
0.0
 11
-93.29660747567643
 21
6.001900984310347
 31
0.0
  0
LINE
  5
C6DC2
330
C6BAB
100
AcDbEntity
  8
035
 62
     3
100
AcDbLine
 10
-90.12182105437117
 20
3.208952224845788
 30
0.0
 11
-90.55855958148132
 21
3.645690751955979
 31
0.0
  0
LINE
  5
C6DC3
330
C6BAB
100
AcDbEntity
  8
035
 62
     3
100
AcDbLine
 10
-91.54981246847759
 20
4.636943638952223
 30
0.0
 11
-93.10276471313498
 21
6.189895883609548
 31
0.0
  0
LINE
  5
C6DC4
330
C6BAB
100
AcDbEntity
  8
035
 62
     3
100
AcDbLine
 10
-89.73998339253046
 20
3.208952224845788
 30
0.0
 11
-90.48926945996845
 21
3.958238292283832
 31
0.0
  0
LINE
  5
C6DC5
330
C6BAB
100
AcDbEntity
  8
035
 62
     3
100
AcDbLine
 10
-91.48052234696473
 20
4.949491179280076
 30
0.0
 11
-92.72092705129422
 21
6.189895883609548
 31
0.0
  0
LINE
  5
C6DC6
330
C6BAB
100
AcDbEntity
  8
035
 62
     3
100
AcDbLine
 10
-89.35814573068967
 20
3.208952224845788
 30
0.0
 11
-90.41997933845555
 21
4.270785832611719
 31
0.0
  0
LINE
  5
C6DC7
330
C6BAB
100
AcDbEntity
  8
035
 62
     3
100
AcDbLine
 10
-91.41123222545187
 20
5.26203871960798
 30
0.0
 11
-92.33908938945345
 21
6.189895883609548
 31
0.0
  0
LINE
  5
C6DC8
330
C6BAB
100
AcDbEntity
  8
035
 62
     3
100
AcDbLine
 10
-88.97630806884894
 20
3.208952224845788
 30
0.0
 11
-90.3506892169427
 21
4.583333372939572
 31
0.0
  0
LINE
  5
C6DC9
330
C6BAB
100
AcDbEntity
  8
035
 62
     3
100
AcDbLine
 10
-91.34194210393898
 20
5.574586259935832
 30
0.0
 11
-91.95725172761273
 21
6.189895883609548
 31
0.0
  0
LINE
  5
C6DCA
330
C6BAB
100
AcDbEntity
  8
035
 62
     3
100
AcDbLine
 10
-88.68014443182048
 20
3.294626249658071
 30
0.0
 11
-90.2813990954298
 21
4.895880913267424
 31
0.0
  0
LINE
  5
C6DCB
330
C6BAB
100
AcDbEntity
  8
035
 62
     3
100
AcDbLine
 10
-91.27265198242611
 20
5.887133800263702
 30
0.0
 11
-91.57541406577198
 21
6.189895883609548
 31
0.0
  0
LINE
  5
C6DCC
330
C6BAB
100
AcDbEntity
  8
035
 62
     3
100
AcDbLine
 10
-88.61085431030762
 20
3.607173789985941
 30
0.0
 11
-90.21210897391695
 21
5.208428453595277
 31
0.0
  0
LINE
  5
C6DCD
330
C6BAB
100
AcDbEntity
  8
035
 62
     3
100
AcDbLine
 10
-88.54156418879478
 20
3.919721330313828
 30
0.0
 11
-90.14281885240405
 21
5.52097599392313
 31
0.0
  0
LINE
  5
C6DCE
330
C6BAB
100
AcDbEntity
  8
035
 62
     3
100
AcDbLine
 10
-88.29570535899964
 20
4.055700162359462
 30
0.0
 11
-90.0735287308912
 21
5.833523534251034
 31
0.0
  0
LINE
  5
C6DCF
330
C6BAB
100
AcDbEntity
  8
035
 62
     3
100
AcDbLine
 10
-88.02796166160177
 20
4.169794126802318
 30
0.0
 11
-90.0042386093783
 21
6.146071074578887
 31
0.0
  0
LINE
  5
C6DD0
330
C6BAB
100
AcDbEntity
  8
035
 62
     3
100
AcDbLine
 10
-87.76021796420389
 20
4.283888091245174
 30
0.0
 11
-89.66622575656828
 21
6.189895883609582
 31
0.0
  0
LINE
  5
C6DD1
330
C6BAB
100
AcDbEntity
  8
035
 62
     3
100
AcDbLine
 10
-86.30344443596383
 20
3.208952224845805
 30
0.0
 11
-89.28438809472757
 21
6.189895883609582
 31
0.0
  0
LINE
  5
C6DD2
330
C6BAB
100
AcDbEntity
  8
035
 62
     3
100
AcDbLine
 10
-85.9216067741231
 20
3.208952224845805
 30
0.0
 11
-88.00410423935582
 21
5.291449690078545
 31
0.0
  0
LINE
  5
C6DD3
330
C6BAB
100
AcDbEntity
  8
035
 62
     3
100
AcDbLine
 10
-88.19511358123031
 20
5.482459031953041
 30
0.0
 11
-88.90255043288684
 21
6.189895883609582
 31
0.0
  0
LINE
  5
C6DD4
330
C6BAB
100
AcDbEntity
  8
035
 62
     3
100
AcDbLine
 10
-85.53976911228232
 20
3.208952224845805
 30
0.0
 11
-87.73636054195796
 21
5.405543654521418
 31
0.0
  0
LINE
  5
C6DD5
330
C6BAB
100
AcDbEntity
  8
035
 62
     3
100
AcDbLine
 10
-88.12582345971746
 20
5.795006572280945
 30
0.0
 11
-88.52071277104608
 21
6.189895883609582
 31
0.0
  0
LINE
  5
C6DD6
330
C6BAB
100
AcDbEntity
  8
035
 62
     3
100
AcDbLine
 10
-85.15793145044158
 20
3.208952224845805
 30
0.0
 11
-87.46861684456007
 21
5.51963761896429
 31
0.0
  0
LINE
  5
C6DD7
330
C6BAB
100
AcDbEntity
  8
035
 62
     3
100
AcDbLine
 10
-88.05653333820462
 20
6.107554112608815
 30
0.0
 11
-88.13887510920535
 21
6.189895883609582
 31
0.0
  0
LINE
  5
C6DD8
330
C6BAB
100
AcDbEntity
  8
035
 62
     3
100
AcDbLine
 10
-84.77609378860085
 20
3.208952224845805
 30
0.0
 11
-87.20087314716224
 21
5.633731583407163
 31
0.0
  0
LINE
  5
C6DD9
330
C6BAB
100
AcDbEntity
  8
035
 62
     3
100
AcDbLine
 10
-84.39425612676016
 20
3.208952224845805
 30
0.0
 11
-86.93312944976439
 21
5.747825547850036
 31
0.0
  0
LINE
  5
C6DDA
330
C6BAB
100
AcDbEntity
  8
035
 62
     3
100
AcDbLine
 10
-84.01241846491942
 20
3.208952224845805
 30
0.0
 11
-86.66538575236653
 21
5.861919512292908
 31
0.0
  0
LINE
  5
C6DDB
330
C6BAB
100
AcDbEntity
  8
035
 62
     3
100
AcDbLine
 10
-85.61826838502103
 20
5.196639806788155
 30
0.0
 11
-86.39764205496863
 21
5.976013476735781
 31
0.0
  0
LINE
  5
C6DDC
330
C6BAB
100
AcDbEntity
  8
035
 62
     3
100
AcDbLine
 10
-85.35052468762314
 20
5.310733771231028
 30
0.0
 11
-86.1298983575708
 21
6.090107441178654
 31
0.0
  0
LINE
  5
C6DDD
330
C6BAB
100
AcDbEntity
  8
035
 62
     3
100
AcDbLine
 10
-85.08278099022531
 20
5.424827735673883
 30
0.0
 11
-85.84784913816093
 21
6.189895883609565
 31
0.0
  0
LINE
  5
C6DDE
330
C6BAB
100
AcDbEntity
  8
035
 62
     3
100
AcDbLine
 10
-84.81503729282744
 20
5.538921700116755
 30
0.0
 11
-85.46601147632019
 21
6.189895883609565
 31
0.0
  0
LINE
  5
C6DDF
330
C6BAB
100
AcDbEntity
  8
035
 62
     3
100
AcDbLine
 10
-84.54729359542955
 20
5.653015664559612
 30
0.0
 11
-85.08417381447946
 21
6.189895883609565
 31
0.0
  0
LINE
  5
C6DE0
330
C6BAB
100
AcDbEntity
  8
035
 62
     3
100
AcDbLine
 10
-84.27954989803168
 20
5.767109629002501
 30
0.0
 11
-84.7023361526387
 21
6.189895883609565
 31
0.0
  0
LINE
  5
C6DE1
330
C6BAB
100
AcDbEntity
  8
035
 62
     3
100
AcDbLine
 10
-84.01180620063382
 20
5.881203593445357
 30
0.0
 11
-84.32049849079799
 21
6.189895883609565
 31
0.0
  0
LINE
  5
C6DE2
330
C6BAB
100
AcDbEntity
  8
035
 62
     3
100
AcDbLine
 10
-83.74406250323593
 20
5.99529755788823
 30
0.0
 11
-83.93866082895725
 21
6.189895883609565
 31
0.0
  0
LINE
  5
C6DE3
330
C6BAB
100
AcDbEntity
  8
035
 62
     3
100
AcDbLine
 10
-83.4763188058381
 20
6.109391522331085
 30
0.0
 11
-83.55682316711654
 21
6.189895883609565
 31
0.0
  0
ENDBLK
  5
C6DE5
330
C6BAB
100
AcDbEntity
  8
0
100
AcDbBlockEnd
  0
BLOCK
  5
C87AE
330
C87A7
100
AcDbEntity
  8
0
100
AcDbBlockBegin
  2
A$C694C5F03
 70
     0
 10
0.0
 20
0.0
 30
0.0
  3
A$C694C5F03
  1

  0
LINE
  5
C87A8
330
C87A7
100
AcDbEntity
  8
035
100
AcDbLine
 10
0.6247887812000386
 20
7.849304745390412
 30
0.0
 11
2.473175950091501
 21
8.262916699309442
 31
0.0
  0
LINE
  5
C87A9
330
C87A7
100
AcDbEntity
  8
035
100
AcDbLine
 10
-0.000000462310453
 20
8.529280618516878
 30
0.0
 11
2.298480957152946
 21
9.043609762838372
 31
0.0
  0
LINE
  5
C87AA
330
C87A7
100
AcDbEntity
  8
035
100
AcDbLine
 10
3.881364563822046
 20
2.201073455820335
 30
0.0
 11
4.040574738985384
 21
6.424233586109409
 31
0.0
  0
LINE
  5
C87AB
330
C87A7
100
AcDbEntity
  8
035
100
AcDbLine
 10
4.598953923218232
 20
-0.0000002110643891
 30
0.0
 11
4.840006849394399
 21
6.394095556197498
 31
0.0
  0
LWPOLYLINE
  5
C87AC
330
C87A7
100
AcDbEntity
  8
035
100
AcDbPolyline
 90
        3
 70
     0
 43
0.0
 10
4.840006849394455
 20
6.394095556198919
 42
0.1181822769953935
 10
4.530327070676833
 20
7.940915998544284
 42
0.3531951765162725
 10
2.298480957152946
 20
9.043609762838372
 42
0.3531951765162725
  0
LWPOLYLINE
  5
C87AD
330
C87A7
100
AcDbEntity
  8
035
100
AcDbPolyline
 90
        3
 70
     0
 43
0.0
 10
4.040574738985412
 20
6.424233586110489
 42
0.1181822769953939
 10
3.804112934880407
 20
7.605337350580128
 42
0.3531951765162764
 10
2.473175950091501
 20
8.262916699309442
 42
0.3531951765162764
  0
ENDBLK
  5
C87AF
330
C87A7
100
AcDbEntity
  8
0
100
AcDbBlockEnd
  0
BLOCK
  5
C87BB
330
C87B6
100
AcDbEntity
  8
0
100
AcDbBlockBegin
  2
A$C433B085C
 70
     0
 10
0.0
 20
0.0
 30
0.0
  3
A$C433B085C
  1

  0
LINE
  5
C87B7
330
C87B6
100
AcDbEntity
  8
035
100
AcDbLine
 10
-0.0000005140071835
 20
9.091439341763106
 30
0.0
 11
10.49999948599281
 21
9.091439341763106
 31
0.0
  0
LINE
  5
C87B8
330
C87B6
100
AcDbEntity
  8
035
100
AcDbLine
 10
12.69999948599286
 20
9.091439341763106
 30
0.0
 11
23.19999948599286
 21
9.091439341763106
 31
0.0
  0
LINE
  5
C87B9
330
C87B6
100
AcDbEntity
  8
035
100
AcDbLine
 10
25.39999948599291
 20
9.091439341763106
 30
0.0
 11
35.89999948599291
 21
9.091439341763106
 31
0.0
  0
INSERT
  5
C87BA
330
C87B6
100
AcDbEntity
  8
BEM1
100
AcDbBlockReference
  2
A$C694C5F03
 10
118.1635753736846
 20
-0.0000000076036031
 30
0.0
  0
ENDBLK
  5
C87BC
330
C87B6
100
AcDbEntity
  8
0
100
AcDbBlockEnd
  0
BLOCK
  5
C885E
330
C87C3
100
AcDbEntity
  8
0
100
AcDbBlockBegin
  2
ZKOPF-REAN
 70
     2
 10
0.0
 20
0.0
 30
0.0
  3
ZKOPF-REAN
  1

  0
TEXT
  5
C87C4
330
C87C3
100
AcDbEntity
  8
035
100
AcDbText
 10
517.6531578478322
 20
512.8485899902175
 30
0.0
 40
3.5
  1
  
 41
0.7
 51
15.0
100
AcDbText
  0
TEXT
  5
C87C5
330
C87C3
100
AcDbEntity
  8
035
100
AcDbText
 10
517.6531578478322
 20
512.8485899902175
 30
0.0
 40
3.5
  1
  
 41
0.7
 51
15.0
100
AcDbText
  0
TEXT
  5
C87C6
330
C87C3
100
AcDbEntity
  8
035
100
AcDbText
 10
517.6531578478322
 20
512.8485899902175
 30
0.0
 40
3.5
  1
  
 41
0.7
 51
15.0
100
AcDbText
  0
TEXT
  5
C87C7
330
C87C3
100
AcDbEntity
  8
035
100
AcDbText
 10
517.6531578478322
 20
512.8485899902175
 30
0.0
 40
3.5
  1
  
 41
0.7
 51
15.0
100
AcDbText
  0
TEXT
  5
C87C8
330
C87C3
100
AcDbEntity
  8
035
100
AcDbText
 10
517.6531578478322
 20
512.8485899902175
 30
0.0
 40
3.5
  1
  
 41
0.7
 51
15.0
100
AcDbText
  0
TEXT
  5
C87C9
330
C87C3
100
AcDbEntity
  8
035
100
AcDbText
 10
517.6531578478322
 20
512.8485899902175
 30
0.0
 40
3.5
  1
  
 41
0.7
 51
15.0
100
AcDbText
  0
TEXT
  5
C87CA
330
C87C3
100
AcDbEntity
  8
035
100
AcDbText
 10
517.6531578478322
 20
512.8485899902175
 30
0.0
 40
3.5
  1
  
 41
0.7
 51
15.0
100
AcDbText
  0
TEXT
  5
C87CB
330
C87C3
100
AcDbEntity
  8
035
100
AcDbText
 10
517.6531578478322
 20
512.8485899902175
 30
0.0
 40
3.5
  1
  
 41
0.7
 51
15.0
100
AcDbText
  0
TEXT
  5
C87CC
330
C87C3
100
AcDbEntity
  8
035
100
AcDbText
 10
517.6531578478322
 20
512.8485899902175
 30
0.0
 40
3.5
  1
  
 41
0.7
 51
15.0
100
AcDbText
  0
TEXT
  5
C87CD
330
C87C3
100
AcDbEntity
  8
035
100
AcDbText
 10
517.6531578478322
 20
512.8485899902175
 30
0.0
 40
3.5
  1
  
 41
0.7
 51
15.0
100
AcDbText
  0
TEXT
  5
C87CE
330
C87C3
100
AcDbEntity
  8
035
100
AcDbText
 10
517.6531578478322
 20
512.8485899902175
 30
0.0
 40
3.5
  1
  
 41
0.7
 51
15.0
100
AcDbText
  0
TEXT
  5
C87CF
330
C87C3
100
AcDbEntity
  8
035
100
AcDbText
 10
517.6531578478322
 20
512.8485899902175
 30
0.0
 40
3.5
  1
  
 41
0.7
 51
15.0
100
AcDbText
  0
ATTDEF
  5
C87D0
330
C87C3
100
AcDbEntity
  8
0
 62
     4
100
AcDbText
 10
-15.16666666666666
 20
37.0
 30
0.0
 40
2.5
  1
Battlogg
  7
SCRIPTS
 72
     1
 11
-8.5
 21
37.0
 31
0.0
100
AcDbAttributeDefinition
  3
Name des Konstrukteurs ?
  2
NAME
 70
     0
  0
LWPOLYLINE
  5
C87D1
330
C87C3
100
AcDbEntity
  8
0
 62
     2
100
AcDbPolyline
 90
        2
 70
     0
 43
0.0
 10
-51.0
 20
0.0
 10
-51.0
 20
46.0
  0
LWPOLYLINE
  5
C87D2
330
C87C3
100
AcDbEntity
  8
0
 62
     2
100
AcDbPolyline
 90
        2
 70
     0
 43
0.0
 10
-17.0
 20
9.0
 10
-17.0
 20
46.0
  0
LWPOLYLINE
  5
C87D3
330
C87C3
100
AcDbEntity
  8
0
 62
     2
100
AcDbPolyline
 90
        2
 70
     0
 43
0.0
 10
-32.0
 20
26.0
 10
-32.0
 20
46.0
  0
LWPOLYLINE
  5
C87D4
330
C87C3
100
AcDbEntity
  8
0
 62
     2
100
AcDbPolyline
 90
        2
 70
     0
 43
0.0
 10
-133.0
 20
41.0
 10
-92.0
 20
41.0
  0
LWPOLYLINE
  5
C87D5
330
C87C3
100
AcDbEntity
  8
0
 62
     2
100
AcDbPolyline
 90
        2
 70
     0
 43
0.0
 10
-145.0
 20
0.0
 10
-145.0
 20
46.0
  0
LWPOLYLINE
  5
C87D6
330
C87C3
100
AcDbEntity
  8
0
 62
     2
100
AcDbPolyline
 90
        2
 70
     0
 43
0.0
 10
-158.0
 20
0.0
 10
-158.0
 20
46.0
  0
LINE
  5
C87D7
330
C87C3
100
AcDbEntity
  8
0
 62
     2
100
AcDbLine
 10
-200.0
 20
6.0
 30
0.0
 11
-133.0
 21
6.0
 31
0.0
  0
LWPOLYLINE
  5
C87D8
330
C87C3
100
AcDbEntity
  8
0
 62
     4
100
AcDbPolyline
 90
        2
 70
     0
 43
0.0
 10
-200.0
 20
11.0
 10
-133.0
 20
11.0
  0
LWPOLYLINE
  5
C87D9
330
C87C3
100
AcDbEntity
  8
0
 62
     4
100
AcDbPolyline
 90
        2
 70
     0
 43
0.0
 10
-200.0
 20
16.0
 10
-133.0
 20
16.0
  0
LWPOLYLINE
  5
C87DA
330
C87C3
100
AcDbEntity
  8
0
 62
     4
100
AcDbPolyline
 90
        2
 70
     0
 43
0.0
 10
-200.0
 20
21.0
 10
-133.0
 20
21.0
  0
LWPOLYLINE
  5
C87DB
330
C87C3
100
AcDbEntity
  8
0
 62
     4
100
AcDbPolyline
 90
        2
 70
     0
 43
0.0
 10
-200.0
 20
26.0
 10
-133.0
 20
26.0
  0
LWPOLYLINE
  5
C87DC
330
C87C3
100
AcDbEntity
  8
0
 62
     4
100
AcDbPolyline
 90
        2
 70
     0
 43
0.0
 10
-200.0
 20
31.0
 10
-133.0
 20
31.0
  0
LWPOLYLINE
  5
C87DD
330
C87C3
100
AcDbEntity
  8
0
 62
     4
100
AcDbPolyline
 90
        2
 70
     0
 43
0.0
 10
-200.0
 20
36.0
 10
-133.0
 20
36.0
  0
LWPOLYLINE
  5
C87DE
330
C87C3
100
AcDbEntity
  8
0
 62
     4
100
AcDbPolyline
 90
        2
 70
     0
 43
0.0
 10
-200.0
 20
41.0
 10
-133.0
 20
41.0
  0
TEXT
  5
C87DF
330
C87C3
100
AcDbEntity
  8
0
 62
     4
100
AcDbText
 10
-50.0
 20
6.0
 30
0.0
 40
1.5
  1
Zeichn. Nr.
 51
15.0
100
AcDbText
  0
TEXT
  5
C87E0
330
C87C3
100
AcDbEntity
  8
0
 62
     4
100
AcDbText
 10
-50.0
 20
23.0
 30
0.0
 40
1.5
  1
Ersetzt durch:         Blatt
 51
15.0
100
AcDbText
  0
TEXT
  5
C87E1
330
C87C3
100
AcDbEntity
  8
0
 62
     4
100
AcDbText
 10
-50.0
 20
38.0
 30
0.0
 40
1.5
  1
Gezeichnet
 51
15.0
100
AcDbText
  0
TEXT
  5
C87E2
330
C87C3
100
AcDbEntity
  8
0
 62
     4
100
AcDbText
 10
-50.0
 20
27.0
 30
0.0
 40
1.5
  1
Gesehen
 51
15.0
100
AcDbText
  0
TEXT
  5
C87E3
330
C87C3
100
AcDbEntity
  8
0
 62
     4
100
AcDbText
 10
-31.0
 20
42.0
 30
0.0
 40
1.5
  1
Datum     Name
 51
15.0
100
AcDbText
  0
TEXT
  5
C87E4
330
C87C3
100
AcDbEntity
  8
0
 62
     4
100
AcDbText
 10
-91.0
 20
42.0
 30
0.0
 40
1.5
  1
Werkstoff:      Massstab:
 51
15.0
100
AcDbText
  0
TEXT
  5
C87E5
330
C87C3
100
AcDbEntity
  8
0
 62
     4
100
AcDbText
 10
-132.0
 20
23.0
 30
0.0
 40
1.5
  1
Benennung:
 51
15.0
100
AcDbText
  0
LINE
  5
C87E6
330
C87C3
100
AcDbEntity
  8
0
 62
     2
100
AcDbLine
 10
-133.0
 20
33.0
 30
0.0
 11
-92.0
 21
33.0
 31
0.0
  0
TEXT
  5
C87E7
330
C87C3
100
AcDbEntity
  8
0
 62
     4
100
AcDbText
 10
-132.0
 20
39.0
 30
0.0
 40
1.5
  1
*)Lieferant darf ohne 
 51
15.0
100
AcDbText
  0
TEXT
  5
C87E8
330
C87C3
100
AcDbEntity
  8
0
 62
     4
100
AcDbText
 10
-132.0
 20
36.5
 30
0.0
 40
1.5
  1
 Ruecksprache nicht 
 51
15.0
100
AcDbText
  0
TEXT
  5
C87E9
330
C87C3
100
AcDbEntity
  8
0
 62
     4
100
AcDbText
 10
-132.0
 20
34.0
 30
0.0
 40
1.5
  1
 geaendert werden
 51
15.0
100
AcDbText
  0
TEXT
  5
C87EA
330
C87C3
100
AcDbEntity
  8
0
 62
     4
100
AcDbText
 10
-132.0
 20
30.0
 30
0.0
 40
1.5
  1
Zeichnung urheberrechtlich
 51
15.0
100
AcDbText
  0
TEXT
  5
C87EB
330
C87C3
100
AcDbEntity
  8
0
 62
     4
100
AcDbText
 10
-132.0
 20
27.5
 30
0.0
 40
1.5
  1
geschuetzt (DIN 34) (C)
 51
15.0
100
AcDbText
  0
TEXT
  5
C87EC
330
C87C3
100
AcDbEntity
  8
0
 62
     4
100
AcDbText
 10
-50.0
 20
32.0
 30
0.0
 40
1.5
  1
Geprueft
 51
15.0
100
AcDbText
  0
TEXT
  5
C87ED
330
C87C3
100
AcDbEntity
  8
0
 62
     4
100
AcDbText
 10
-50.0
 20
15.0
 30
0.0
 40
1.5
  1
Ersatz fuer:           von  Blatt
 51
15.0
100
AcDbText
  0
TEXT
  5
C87EE
330
C87C3
100
AcDbEntity
  8
0
 62
     4
100
AcDbText
 10
-197.0
 20
1.0
 30
0.0
 40
1.5
  1
Ind.  Aenderung             Datum    Name
 51
15.0
100
AcDbText
  0
ATTDEF
  5
C87EF
330
C87C3
100
AcDbEntity
  8
0
 62
     4
100
AcDbText
 10
-30.77083333333333
 20
37.0
 30
0.0
 40
2.5
  1
03.11.2004
 41
0.7
 51
15.0
 72
     1
 11
-24.5
 21
37.0
 31
0.0
100
AcDbAttributeDefinition
  3
Datum der Zeichnung ?
  2
DATE
 70
     0
  0
ATTDEF
  5
C87F0
330
C87C3
100
AcDbEntity
  8
0
 62
     4
100
AcDbText
 10
-80.5
 20
36.0
 30
0.0
 40
2.5
  1

 41
0.7
 51
15.0
 72
     1
 11
-80.5
 21
36.0
 31
0.0
100
AcDbAttributeDefinition
  3
Aus welchem Werkstoff ?
  2
WERKSTOFF
 70
     0
  0
ATTDEF
  5
C87F1
330
C87C3
100
AcDbEntity
  8
0
 62
     2
100
AcDbText
 10
-92.0
 20
12.5
 30
0.0
 40
5.0
  1

 41
0.7
 51
15.0
 72
     1
 11
-92.0
 21
12.5
 31
0.0
100
AcDbAttributeDefinition
  3
Zeichnungsname ?
  2
BENENNUNG
 70
     0
  0
ATTDEF
  5
C87F2
330
C87C3
100
AcDbEntity
  8
0
 62
     3
100
AcDbText
 10
-90.26545660187862
 20
21.08219145052693
 30
0.0
 40
3.5
  1
()
 41
0.7
 51
15.0
 72
     1
 11
-89.04045660187861
 21
21.08219145052693
 31
0.0
100
AcDbAttributeDefinition
  3
Zu welchem Produkt ?
  2
TEIL
 70
     0
  0
ATTDEF
  5
C87F3
330
C87C3
100
AcDbEntity
  8
0
 62
     3
100
AcDbText
 10
-20.55021908257641
 20
1.976541016537794
 30
0.0
 40
3.5
  1

 41
0.7
 51
15.0
 72
     1
 11
-20.55021908257641
 21
1.976541016537794
 31
0.0
100
AcDbAttributeDefinition
  3
Zeichnungsnummer ?
  2
NUMMER
 70
     0
  0
ATTDEF
  5
C87F4
330
C87C3
100
AcDbEntity
  8
0
 62
     2
100
AcDbText
 10
-62.89933830414278
 20
34.65605623293453
 30
0.0
 40
5.0
  1
1:1
 41
0.7
 51
15.0
 72
     1
 11
-60.56600497080944
 21
34.65605623293453
 31
0.0
100
AcDbAttributeDefinition
  3
Hauptmassstab:
  2
MASS
 70
     0
  0
ATTDEF
  5
C87F5
330
C87C3
100
AcDbEntity
  8
0
 62
     3
100
AcDbText
 10
-60.48070094598003
 20
28.2104505391753
 30
0.0
 40
3.5
  1

 41
0.7
 51
15.0
 72
     1
 11
-60.48070094598003
 21
28.2104505391753
 31
0.0
100
AcDbAttributeDefinition
  3
Nebenmassstab:
  2
MASS2
 70
     0
  0
ATTDEF
  5
C87F6
330
C87C3
100
AcDbEntity
  8
0
 62
     4
100
AcDbText
 10
-81.0
 20
29.0
 30
0.0
 40
2.5
  1

 41
0.7
 51
15.0
 72
     1
 11
-81.0
 21
29.0
 31
0.0
100
AcDbAttributeDefinition
  3
Werkstoffzusatz:
  2
TEIL
 70
     0
  0
ATTDEF
  5
C87F7
330
C87C3
100
AcDbEntity
  8
0
 62
     3
100
AcDbText
 10
-107.7114519405618
 20
59.00431874742944
 30
0.0
 40
3.5
  1
Freimasstoleranzen %%p0.1
 41
0.7
 51
15.0
100
AcDbAttributeDefinition
  3
Freimasstoleranzen:
  2
TOL
 70
     0
  0
ATTDEF
  5
C87F8
330
C87C3
100
AcDbEntity
  8
0
 62
     3
100
AcDbText
 10
-107.7114519405618
 20
54.00431874742944
 30
0.0
 40
3.5
  1
nicht bemasste Radien R=0.2
 41
0.7
 51
15.0
100
AcDbAttributeDefinition
  3
Nicht bemasste Radien:
  2
RADIEN
 70
     0
  0
ATTDEF
  5
C87F9
330
C87C3
100
AcDbEntity
  8
0
 62
     3
100
AcDbText
 10
-107.7114519405618
 20
49.00431874742944
 30
0.0
 40
3.5
  1
nicht bemasste Facetten 0.5 x 45%%D
 41
0.7
 51
15.0
100
AcDbAttributeDefinition
  3
nicht bemasste Facetten:
  2
FACETTE
 70
     0
  0
LWPOLYLINE
  5
C87FA
330
C87C3
100
AcDbEntity
  8
0
 62
     2
100
AcDbPolyline
 90
        2
 70
     0
 43
0.0
 10
-191.0
 20
0.0
 10
-191.0
 20
46.0
  0
LWPOLYLINE
  5
C87FB
330
C87C3
100
AcDbEntity
  8
0
 62
     2
100
AcDbPolyline
 90
        2
 70
     0
 43
0.0
 10
-133.0
 20
0.0
 10
-133.0
 20
46.0
  0
LWPOLYLINE
  5
C87FC
330
C87C3
100
AcDbEntity
  8
0
 62
     2
100
AcDbPolyline
 90
        2
 70
     0
 43
0.0
 10
-92.0
 20
26.0
 10
-92.0
 20
46.0
  0
LWPOLYLINE
  5
C87FD
330
C87C3
100
AcDbEntity
  8
0
 62
     2
100
AcDbPolyline
 90
        2
 70
     0
 43
0.0
 10
-69.0
 20
26.0
 10
-69.0
 20
46.0
  0
ATTDEF
  5
C87FE
330
C87C3
100
AcDbEntity
  8
0
 62
     4
100
AcDbText
 10
-197.1862672583826
 20
7.0
 30
0.0
 40
2.5
  1

 41
0.7
 51
15.0
100
AcDbAttributeDefinition
  3
Index1:
  2
INDEX1
 70
     0
  0
ATTDEF
  5
C87FF
330
C87C3
100
AcDbEntity
  8
0
 62
     4
100
AcDbText
 10
-190.3487426035503
 20
7.0
 30
0.0
 40
2.5
  1

 41
0.7
 51
15.0
100
AcDbAttributeDefinition
  3
Aenderung1:
  2
A1
 70
     0
  0
ATTDEF
  5
C8800
330
C87C3
100
AcDbEntity
  8
0
 62
     4
100
AcDbText
 10
-157.3487426035503
 20
7.0
 30
0.0
 40
2.5
  1

 41
0.7
 51
15.0
100
AcDbAttributeDefinition
  3
Datum1:
  2
DATUM1
 70
     0
  0
ATTDEF
  5
C8801
330
C87C3
100
AcDbEntity
  8
0
 62
     4
100
AcDbText
 10
-144.464990138067
 20
7.0
 30
0.0
 40
2.5
  1

 41
0.7
 51
15.0
100
AcDbAttributeDefinition
  3
Name1:
  2
NAME1
 70
     0
  0
ATTDEF
  5
C8802
330
C87C3
100
AcDbEntity
  8
0
 62
     4
100
AcDbText
 10
-197.1862672583826
 20
12.0
 30
0.0
 40
2.5
  1

 41
0.7
 51
15.0
100
AcDbAttributeDefinition
  3
Index2:
  2
INDEX2
 70
     0
  0
ATTDEF
  5
C8803
330
C87C3
100
AcDbEntity
  8
0
 62
     4
100
AcDbText
 10
-190.3487426035503
 20
12.0
 30
0.0
 40
2.5
  1

 41
0.7
 51
15.0
100
AcDbAttributeDefinition
  3
Aenderung2:
  2
A2
 70
     0
  0
ATTDEF
  5
C8804
330
C87C3
100
AcDbEntity
  8
0
 62
     4
100
AcDbText
 10
-157.3487426035503
 20
12.0
 30
0.0
 40
2.5
  1

 41
0.7
 51
15.0
100
AcDbAttributeDefinition
  3
Datum2:
  2
DATUM2
 70
     0
  0
ATTDEF
  5
C8805
330
C87C3
100
AcDbEntity
  8
0
 62
     4
100
AcDbText
 10
-144.464990138067
 20
12.0
 30
0.0
 40
2.5
  1

 41
0.7
 51
15.0
100
AcDbAttributeDefinition
  3
Name2
  2
NAME2
 70
     0
  0
ATTDEF
  5
C8806
330
C87C3
100
AcDbEntity
  8
0
 62
     4
100
AcDbText
 10
-197.1862672583826
 20
17.0
 30
0.0
 40
2.5
  1

 41
0.7
 51
15.0
100
AcDbAttributeDefinition
  3
Index3:
  2
INDEX3
 70
     0
  0
ATTDEF
  5
C8807
330
C87C3
100
AcDbEntity
  8
0
 62
     4
100
AcDbText
 10
-190.3487426035503
 20
17.0
 30
0.0
 40
2.5
  1

 41
0.7
 51
15.0
100
AcDbAttributeDefinition
  3
Aenderung3
  2
A3
 70
     0
  0
ATTDEF
  5
C8808
330
C87C3
100
AcDbEntity
  8
0
 62
     4
100
AcDbText
 10
-157.3487426035503
 20
17.0
 30
0.0
 40
2.5
  1

 41
0.7
 51
15.0
100
AcDbAttributeDefinition
  3
Datum3:
  2
DATUM3
 70
     0
  0
ATTDEF
  5
C8809
330
C87C3
100
AcDbEntity
  8
0
 62
     4
100
AcDbText
 10
-144.464990138067
 20
17.0
 30
0.0
 40
2.5
  1

 41
0.7
 51
15.0
100
AcDbAttributeDefinition
  3
Name3:
  2
NAME3
 70
     0
  0
ATTDEF
  5
C880A
330
C87C3
100
AcDbEntity
  8
0
 62
     4
100
AcDbText
 10
-197.1862672583826
 20
22.0
 30
0.0
 40
2.5
  1

 41
0.7
 51
15.0
100
AcDbAttributeDefinition
  3
Index4:
  2
INDEX4
 70
     0
  0
ATTDEF
  5
C880B
330
C87C3
100
AcDbEntity
  8
0
 62
     4
100
AcDbText
 10
-190.3487426035503
 20
22.0
 30
0.0
 40
2.5
  1

 41
0.7
 51
15.0
100
AcDbAttributeDefinition
  3
Aenderung4:
  2
A4
 70
     0
  0
ATTDEF
  5
C880C
330
C87C3
100
AcDbEntity
  8
0
 62
     4
100
AcDbText
 10
-157.3487426035503
 20
22.0
 30
0.0
 40
2.5
  1

 41
0.7
 51
15.0
100
AcDbAttributeDefinition
  3
Datum4:
  2
DATUM4
 70
     0
  0
ATTDEF
  5
C880D
330
C87C3
100
AcDbEntity
  8
0
 62
     4
100
AcDbText
 10
-144.464990138067
 20
22.0
 30
0.0
 40
2.5
  1

 41
0.7
 51
15.0
100
AcDbAttributeDefinition
  3
Name4:
  2
NAME4
 70
     0
  0
ATTDEF
  5
C880E
330
C87C3
100
AcDbEntity
  8
0
 62
     4
100
AcDbText
 10
-197.1862672583826
 20
27.0
 30
0.0
 40
2.5
  1

 41
0.7
 51
15.0
100
AcDbAttributeDefinition
  3
Index5:
  2
INDEX5
 70
     0
  0
ATTDEF
  5
C880F
330
C87C3
100
AcDbEntity
  8
0
 62
     4
100
AcDbText
 10
-190.3487426035503
 20
27.0
 30
0.0
 40
2.5
  1

 41
0.7
 51
15.0
100
AcDbAttributeDefinition
  3
Aenderung5:
  2
A5
 70
     0
  0
ATTDEF
  5
C8810
330
C87C3
100
AcDbEntity
  8
0
 62
     4
100
AcDbText
 10
-157.3487426035503
 20
27.0
 30
0.0
 40
2.5
  1

 41
0.7
 51
15.0
100
AcDbAttributeDefinition
  3
Datum5:
  2
DATUM5
 70
     0
  0
ATTDEF
  5
C8811
330
C87C3
100
AcDbEntity
  8
0
 62
     4
100
AcDbText
 10
-144.464990138067
 20
27.0
 30
0.0
 40
2.5
  1

 41
0.7
 51
15.0
100
AcDbAttributeDefinition
  3
Name5
  2
NAME5
 70
     0
  0
ATTDEF
  5
C8812
330
C87C3
100
AcDbEntity
  8
0
 62
     4
100
AcDbText
 10
-197.1862672583826
 20
32.0
 30
0.0
 40
2.5
  1

 41
0.7
 51
15.0
100
AcDbAttributeDefinition
  3
Index6:
  2
INDEX6
 70
     0
  0
ATTDEF
  5
C8813
330
C87C3
100
AcDbEntity
  8
0
 62
     4
100
AcDbText
 10
-190.3487426035503
 20
32.0
 30
0.0
 40
2.5
  1

 41
0.7
 51
15.0
100
AcDbAttributeDefinition
  3
Aenderung6:
  2
A6
 70
     0
  0
ATTDEF
  5
C8814
330
C87C3
100
AcDbEntity
  8
0
 62
     4
100
AcDbText
 10
-157.3487426035503
 20
32.0
 30
0.0
 40
2.5
  1

 41
0.7
 51
15.0
100
AcDbAttributeDefinition
  3
Datum6:
  2
DATUM6
 70
     0
  0
ATTDEF
  5
C8815
330
C87C3
100
AcDbEntity
  8
0
 62
     4
100
AcDbText
 10
-144.464990138067
 20
32.0
 30
0.0
 40
2.5
  1

 41
0.7
 51
15.0
100
AcDbAttributeDefinition
  3
Name6:
  2
NAME6
 70
     0
  0
ATTDEF
  5
C8816
330
C87C3
100
AcDbEntity
  8
0
 62
     4
100
AcDbText
 10
-197.1862672583826
 20
37.0
 30
0.0
 40
2.5
  1

 41
0.7
 51
15.0
100
AcDbAttributeDefinition
  3
Index7:
  2
INDEX7
 70
     0
  0
ATTDEF
  5
C8817
330
C87C3
100
AcDbEntity
  8
0
 62
     4
100
AcDbText
 10
-190.3487426035503
 20
37.0
 30
0.0
 40
2.5
  1

 41
0.7
 51
15.0
100
AcDbAttributeDefinition
  3
Aenderung7:
  2
A7
 70
     0
  0
ATTDEF
  5
C8818
330
C87C3
100
AcDbEntity
  8
0
 62
     4
100
AcDbText
 10
-157.3487426035503
 20
37.0
 30
0.0
 40
2.5
  1

 41
0.7
 51
15.0
100
AcDbAttributeDefinition
  3
Datum7:
  2
DATUM7
 70
     0
  0
ATTDEF
  5
C8819
330
C87C3
100
AcDbEntity
  8
0
 62
     4
100
AcDbText
 10
-144.464990138067
 20
37.0
 30
0.0
 40
2.5
  1

 41
0.7
 51
15.0
100
AcDbAttributeDefinition
  3
Name7:
  2
NAME7
 70
     0
  0
ATTDEF
  5
C881A
330
C87C3
100
AcDbEntity
  8
0
 62
     4
100
AcDbText
 10
-197.1862672583826
 20
42.0
 30
0.0
 40
2.5
  1

 41
0.7
 51
15.0
100
AcDbAttributeDefinition
  3
Index8:
  2
INDEX8
 70
     0
  0
ATTDEF
  5
C881B
330
C87C3
100
AcDbEntity
  8
0
 62
     4
100
AcDbText
 10
-190.3487426035503
 20
42.0
 30
0.0
 40
2.5
  1

 41
0.7
 51
15.0
100
AcDbAttributeDefinition
  3
Aenderung8:
  2
A8
 70
     0
  0
ATTDEF
  5
C881C
330
C87C3
100
AcDbEntity
  8
0
 62
     4
100
AcDbText
 10
-157.3487426035503
 20
42.0
 30
0.0
 40
2.5
  1

 41
0.7
 51
15.0
100
AcDbAttributeDefinition
  3
Datum8:
  2
DATUM8
 70
     0
  0
ATTDEF
  5
C881D
330
C87C3
100
AcDbEntity
  8
0
 62
     4
100
AcDbText
 10
-144.464990138067
 20
42.0
 30
0.0
 40
2.5
  1

 41
0.7
 51
15.0
100
AcDbAttributeDefinition
  3
Name8:
  2
NAME8
 70
     0
  0
LWPOLYLINE
  5
C881E
330
C87C3
100
AcDbEntity
  8
0
 62
     2
100
AcDbPolyline
 90
        2
 70
     0
 43
0.0
 10
0.0
 20
0.0
 10
0.0
 20
46.0
  0
LWPOLYLINE
  5
C881F
330
C87C3
100
AcDbEntity
  8
0
 62
     2
100
AcDbPolyline
 90
        2
 70
     0
 43
0.0
 10
-200.0
 20
46.0
 10
-200.0
 20
0.0
  0
LWPOLYLINE
  5
C8820
330
C87C3
100
AcDbEntity
  8
0
 62
     2
100
AcDbPolyline
 90
        2
 70
     0
 43
0.0
 10
0.0
 20
9.0
 10
-133.0
 20
9.0
  0
LWPOLYLINE
  5
C8821
330
C87C3
100
AcDbEntity
  8
0
 62
     2
100
AcDbPolyline
 90
        2
 70
     0
 43
0.0
 10
0.0
 20
18.0
 10
-51.0
 20
18.0
  0
LWPOLYLINE
  5
C8822
330
C87C3
100
AcDbEntity
  8
0
 62
     2
100
AcDbPolyline
 90
        2
 70
     0
 43
0.0
 10
0.0
 20
26.0
 10
-133.0
 20
26.0
  0
LWPOLYLINE
  5
C8823
330
C87C3
100
AcDbEntity
  8
0
 62
     2
100
AcDbPolyline
 90
        2
 70
     0
 43
0.0
 10
0.0
 20
31.0
 10
-51.0
 20
31.0
  0
LWPOLYLINE
  5
C8824
330
C87C3
100
AcDbEntity
  8
0
 62
     2
100
AcDbPolyline
 90
        2
 70
     0
 43
0.0
 10
0.0
 20
36.0
 10
-51.0
 20
36.0
  0
LWPOLYLINE
  5
C8825
330
C87C3
100
AcDbEntity
  8
0
 62
     2
100
AcDbPolyline
 90
        2
 70
     0
 43
0.0
 10
0.0
 20
41.0
 10
-51.0
 20
41.0
  0
LWPOLYLINE
  5
C8826
330
C87C3
100
AcDbEntity
  8
0
 62
     2
100
AcDbPolyline
 90
        2
 70
     0
 43
0.0
 10
0.0
 20
46.0
 10
-200.0
 20
46.0
  0
TEXT
  5
C8827
330
C87C3
100
AcDbEntity
  8
035
100
AcDbText
 10
517.6531578478322
 20
512.8485899902175
 30
0.0
 40
3.5
  1
  
 41
0.7
 51
15.0
100
AcDbText
  0
LINE
  5
C8828
330
C87C3
100
AcDbEntity
  8
05
100
AcDbLine
 10
-109.7868330483521
 20
1.991866337002885
 30
0.0
 11
-107.1218538217631
 21
1.991866337002885
 31
0.0
  0
LINE
  5
C8829
330
C87C3
100
AcDbEntity
  8
05
100
AcDbLine
 10
-109.7868330483521
 20
1.991866337002885
 30
0.0
 11
-108.8848445108058
 21
5.721226960809623
 31
0.0
  0
LINE
  5
C882A
330
C87C3
100
AcDbEntity
  8
05
100
AcDbLine
 10
-97.8830568735327
 20
2.941046471765929
 30
0.0
 11
-97.74176765831361
 21
3.525220675617934
 31
0.0
  0
LINE
  5
C882B
330
C87C3
100
AcDbEntity
  8
05
100
AcDbLine
 10
-100.6267526486914
 20
1.985934361472224
 30
0.0
 11
-99.73916957834763
 21
5.655734159484619
 31
0.0
  0
LINE
  5
C882C
330
C87C3
100
AcDbEntity
  8
05
100
AcDbLine
 10
-101.6525702459091
 20
1.991866337002882
 30
0.0
 11
-103.7779290465684
 21
3.448339754567221
 31
0.0
  0
LINE
  5
C882D
330
C87C3
100
AcDbEntity
  8
05
100
AcDbLine
 10
-104.5753381310516
 20
1.991866337002885
 30
0.0
 11
-106.7597940825441
 21
3.48883805970712
 31
0.0
  0
LINE
  5
C882E
330
C87C3
100
AcDbEntity
  8
05
100
AcDbLine
 10
-107.1218538217631
 20
1.991866337002885
 30
0.0
 11
-106.7597940825441
 21
3.48883805970712
 31
0.0
  0
LINE
  5
C882F
330
C87C3
100
AcDbEntity
  8
05
100
AcDbLine
 10
-78.26492197411707
 20
1.991866337001848
 30
0.0
 11
-80.34324343772281
 21
4.257015883687351
 31
0.0
  0
LINE
  5
C8830
330
C87C3
100
AcDbEntity
  8
05
100
AcDbLine
 10
-75.01552085294227
 20
1.991866337002878
 30
0.0
 11
-74.12937249875288
 21
5.655734159485319
 31
0.0
  0
LINE
  5
C8831
330
C87C3
100
AcDbEntity
  8
05
100
AcDbLine
 10
-80.89109577302542
 20
1.991866337002505
 30
0.0
 11
-80.34324343772317
 21
4.257015883686648
 31
0.0
  0
LINE
  5
C8832
330
C87C3
100
AcDbEntity
  8
05
100
AcDbLine
 10
-83.27145116694651
 20
1.991866337002505
 30
0.0
 11
-82.38530281275805
 21
5.655734159484289
 31
0.0
  0
LINE
  5
C8833
330
C87C3
100
AcDbEntity
  8
05
100
AcDbLine
 10
-86.15907732127542
 20
5.655734159484616
 30
0.0
 11
-84.24066766674298
 21
1.991866337002882
 31
0.0
  0
LINE
  5
C8834
330
C87C3
100
AcDbEntity
  8
05
100
AcDbLine
 10
-92.65630241444497
 20
1.991866337002505
 30
0.0
 11
-89.20289518730408
 21
5.655734159484616
 31
0.0
  0
LINE
  5
C8835
330
C87C3
100
AcDbEntity
  8
05
100
AcDbLine
 10
-99.73916957834763
 20
5.655734159484619
 30
0.0
 11
-92.9815535975994
 21
5.655734159485319
 31
0.0
  0
LINE
  5
C8836
330
C87C3
100
AcDbEntity
  8
05
100
AcDbLine
 10
-97.55476756833102
 20
4.298391002290223
 30
0.0
 11
-97.43010073095788
 21
4.81383834451347
 31
0.0
  0
LINE
  5
C8837
330
C87C3
100
AcDbEntity
  8
05
100
AcDbLine
 10
-97.74176765831398
 20
3.525220675617603
 30
0.0
 11
-94.44861970681236
 21
3.525220675617934
 31
0.0
  0
LINE
  5
C8838
330
C87C3
100
AcDbEntity
  8
05
100
AcDbLine
 10
-97.55476756833063
 20
4.29839100229055
 30
0.0
 11
-94.26161961682968
 21
4.298391002290223
 31
0.0
  0
ARC
  5
C8839
330
C87C3
100
AcDbEntity
  8
05
100
AcDbCircle
 10
-103.576800163518
 20
1.048488297276115
 30
0.0
 40
4.603731005277479
100
AcDbArc
 50
69.56298632537043
 51
81.73169224016822
  0
ARC
  5
C883A
330
C87C3
100
AcDbEntity
  8
05
100
AcDbCircle
 10
-104.3603333216701
 20
9.695315794900011
 30
0.0
 40
6.274066017197234
100
AcDbArc
 50
275.3262775600674
 51
289.5259925742931
  0
ARC
  5
C883B
330
C87C3
100
AcDbEntity
  8
05
100
AcDbCircle
 10
-102.5940664039618
 20
4.972077062863199
 30
0.0
 40
1.232717099461144
100
AcDbArc
 50
286.581886490663
 51
338.1469564346364
  0
ARC
  5
C883C
330
C87C3
100
AcDbEntity
  8
05
100
AcDbCircle
 10
-102.0219367310586
 20
4.683869386119464
 30
0.0
 40
0.5972269208190047
100
AcDbArc
 50
340.3997437202058
 51
51.41422783887045
  0
ARC
  5
C883D
330
C87C3
100
AcDbEntity
  8
05
100
AcDbCircle
 10
-102.9254509671164
 20
3.563011322434512
 30
0.0
 40
2.037700194398166
100
AcDbArc
 50
51.53685615196169
 51
62.01504124141347
  0
ARC
  5
C883E
330
C87C3
100
AcDbEntity
  8
05
100
AcDbCircle
 10
-105.569754799183
 20
-23.42102387428333
 30
0.0
 40
29.14656636890817
100
AcDbArc
 50
84.67668343745812
 51
90.98597647069139
  0
ARC
  5
C883F
330
C87C3
100
AcDbEntity
  8
05
100
AcDbCircle
 10
-105.6627547702573
 20
8.045412965496382
 30
0.0
 40
4.086755202961017
100
AcDbArc
 50
273.8445370437203
 51
284.4646279371225
  0
ARC
  5
C8840
330
C87C3
100
AcDbEntity
  8
05
100
AcDbCircle
 10
-105.4613562964997
 20
1.639787309913312
 30
0.0
 40
3.317438272970324
100
AcDbArc
 50
71.64551038643644
 51
85.7127876944537
  0
ARC
  5
C8841
330
C87C3
100
AcDbEntity
  8
05
100
AcDbCircle
 10
-105.2661431730045
 20
5.623081465451853
 30
0.0
 40
1.656946645234813
100
AcDbArc
 50
292.1300030655585
 51
304.0272073555443
  0
ARC
  5
C8842
330
C87C3
100
AcDbEntity
  8
05
100
AcDbCircle
 10
-104.5331025241529
 20
4.496731540846734
 30
0.0
 40
0.3140859843502878
100
AcDbArc
 50
308.1839711471313
 51
68.24904754341393
  0
LINE
  5
C8843
330
C87C3
100
AcDbEntity
  8
05
100
AcDbLine
 10
-106.6828646559808
 20
3.967854388220771
 30
0.0
 11
-106.4458190427289
 21
4.947942869736941
 31
0.0
  0
LINE
  5
C8844
330
C87C3
100
AcDbEntity
  8
05
100
AcDbLine
 10
-106.6828646559808
 20
3.967854388221098
 30
0.0
 11
-105.3887399206229
 21
3.967854388221429
 31
0.0
  0
LINE
  5
C8845
330
C87C3
100
AcDbEntity
  8
05
100
AcDbLine
 10
-106.4458190427289
 20
4.947942869736941
 30
0.0
 11
-105.2133573308301
 21
4.947942869737268
 31
0.0
  0
LINE
  5
C8846
330
C87C3
100
AcDbEntity
  8
05
100
AcDbLine
 10
-108.8848445108058
 20
5.721226960809623
 30
0.0
 11
-106.0016110672158
 21
5.721226960809623
 31
0.0
  0
LINE
  5
C8847
330
C87C3
100
AcDbEntity
  8
05
100
AcDbLine
 10
-93.185175733272
 20
4.81383834451314
 30
0.0
 11
-92.9815535975994
 21
5.655734159485319
 31
0.0
  0
LINE
  5
C8848
330
C87C3
100
AcDbEntity
  8
05
100
AcDbLine
 10
-97.43010073095817
 20
4.81383834451314
 30
0.0
 11
-93.18517573327161
 21
4.81383834451347
 31
0.0
  0
LINE
  5
C8849
330
C87C3
100
AcDbEntity
  8
05
100
AcDbLine
 10
-94.44861970681236
 20
3.525220675617603
 30
0.0
 11
-94.26161961682996
 21
4.29839100229055
 31
0.0
  0
LINE
  5
C884A
330
C87C3
100
AcDbEntity
  8
05
100
AcDbLine
 10
-77.19021318816563
 20
3.465138938138046
 30
0.0
 11
-76.66039266948357
 21
5.655734159484616
 31
0.0
  0
LINE
  5
C884B
330
C87C3
100
AcDbEntity
  8
05
100
AcDbLine
 10
-81.62659632644636
 20
5.655734159484289
 30
0.0
 11
-81.62900308432446
 21
5.658357269822261
 31
0.0
  0
LINE
  5
C884C
330
C87C3
100
AcDbEntity
  8
05
100
AcDbLine
 10
-76.66039266948357
 20
5.655734159484616
 30
0.0
 11
-74.12937249875288
 21
5.655734159485319
 31
0.0
  0
LINE
  5
C884D
330
C87C3
100
AcDbEntity
  8
05
100
AcDbLine
 10
-77.19021318816563
 20
3.465138938138046
 30
0.0
 11
-79.20012951941183
 21
5.655734159484616
 31
0.0
  0
LINE
  5
C884E
330
C87C3
100
AcDbEntity
  8
05
100
AcDbLine
 10
-82.38530281275805
 20
5.655734159484289
 30
0.0
 11
-79.20012951941183
 21
5.655734159484616
 31
0.0
  0
LINE
  5
C884F
330
C87C3
100
AcDbEntity
  8
05
100
AcDbLine
 10
-89.1172440306893
 20
3.284678033248564
 30
0.0
 11
-87.5818787193495
 21
3.28467803324856
 31
0.0
  0
LINE
  5
C8850
330
C87C3
100
AcDbEntity
  8
05
100
AcDbLine
 10
-89.1172440306893
 20
3.284678033248564
 30
0.0
 11
-88.13019592773278
 21
4.331879694043802
 31
0.0
  0
LINE
  5
C8851
330
C87C3
100
AcDbEntity
  8
05
100
AcDbLine
 10
-88.13019592773342
 20
4.331879694043145
 30
0.0
 11
-87.58187871934913
 21
3.28467803324856
 31
0.0
  0
LINE
  5
C8852
330
C87C3
100
AcDbEntity
  8
05
100
AcDbLine
 10
-89.20289518730408
 20
5.655734159484616
 30
0.0
 11
-86.15907732127542
 21
5.655734159484616
 31
0.0
  0
LINE
  5
C8853
330
C87C3
100
AcDbEntity
  8
05
100
AcDbLine
 10
-90.33579379052289
 20
1.991866337002505
 30
0.0
 11
-89.91078079987707
 21
2.442780844948551
 31
0.0
  0
LINE
  5
C8854
330
C87C3
100
AcDbEntity
  8
05
100
AcDbLine
 10
-100.6253179325368
 20
1.991866337002509
 30
0.0
 11
-93.86770195178815
 21
1.991866337003209
 31
0.0
  0
LINE
  5
C8855
330
C87C3
100
AcDbEntity
  8
05
100
AcDbLine
 10
-97.88305687353204
 20
2.941046471765602
 30
0.0
 11
-93.63813187584616
 21
2.941046471765929
 31
0.0
  0
LINE
  5
C8856
330
C87C3
100
AcDbEntity
  8
05
100
AcDbLine
 10
-104.5753381310516
 20
1.991866337002885
 30
0.0
 11
-101.5828815391908
 21
1.991866337002882
 31
0.0
  0
LINE
  5
C8857
330
C87C3
100
AcDbEntity
  8
05
100
AcDbLine
 10
-92.65630241444497
 20
1.991866337002505
 30
0.0
 11
-90.33579379052289
 21
1.991866337002505
 31
0.0
  0
LINE
  5
C8858
330
C87C3
100
AcDbEntity
  8
05
100
AcDbLine
 10
-93.86913666794312
 20
1.985934361472224
 30
0.0
 11
-93.63813187584645
 21
2.941046471765929
 31
0.0
  0
LINE
  5
C8859
330
C87C3
100
AcDbEntity
  8
05
100
AcDbLine
 10
-78.26492197411669
 20
1.991866337002178
 30
0.0
 11
-75.01552085294266
 21
1.991866337002505
 31
0.0
  0
LINE
  5
C885A
330
C87C3
100
AcDbEntity
  8
05
100
AcDbLine
 10
-83.27145116694651
 20
1.991866337002505
 30
0.0
 11
-80.89109577302542
 21
1.991866337002505
 31
0.0
  0
LINE
  5
C885B
330
C87C3
100
AcDbEntity
  8
05
100
AcDbLine
 10
-89.91078079987707
 20
2.442780844948551
 30
0.0
 11
-87.14105940696923
 21
2.44278084494822
 31
0.0
  0
LINE
  5
C885C
330
C87C3
100
AcDbEntity
  8
05
100
AcDbLine
 10
-87.14105940696923
 20
2.442780844948877
 30
0.0
 11
-86.90495952910206
 21
1.991866337002882
 31
0.0
  0
LINE
  5
C885D
330
C87C3
100
AcDbEntity
  8
05
100
AcDbLine
 10
-86.90495952910206
 20
1.991866337002882
 30
0.0
 11
-84.24066766674298
 21
1.991866337002882
 31
0.0
  0
ENDBLK
  5
C885F
330
C87C3
100
AcDbEntity
  8
0
100
AcDbBlockEnd
  0
BLOCK
  5
C8897
330
C8860
100
AcDbEntity
  8
0
100
AcDbBlockBegin
  2
A$C36291E6D
 70
     0
 10
0.0
 20
0.0
 30
0.0
  3
A$C36291E6D
  1

  0
LINE
  5
C8861
330
C8860
100
AcDbEntity
  8
025
100
AcDbLine
 10
1.130109179932006
 20
-0.0000002720705936
 30
0.0
 11
-0.0000001000094301
 21
0.2733295877919488
 31
0.0
  0
LINE
  5
C8862
330
C8860
100
AcDbEntity
  8
025
100
AcDbLine
 10
1.130109179932006
 20
-0.0000002720705936
 30
0.0
 11
1.130109179932006
 21
0.8075691905321491
 31
0.0
  0
LINE
  5
C8863
330
C8860
100
AcDbEntity
  8
025
100
AcDbLine
 10
1.130109179932119
 20
5.191069616992194
 30
0.0
 11
0.0198462034223894
 21
6.237556655519739
 31
0.0
  0
LINE
  5
C8864
330
C8860
100
AcDbEntity
  8
025
100
AcDbLine
 10
0.0198462034223894
 20
7.159925705831454
 30
0.0
 11
1.130109179932006
 21
7.741261964780676
 31
0.0
  0
LINE
  5
C8865
330
C8860
100
AcDbEntity
  8
025
100
AcDbLine
 10
1.130109179932119
 20
8.034963934415969
 30
0.0
 11
0.0198462034224889
 21
8.303493738715502
 31
0.0
  0
LINE
  5
C8866
330
C8860
100
AcDbEntity
  8
025
100
AcDbLine
 10
1.130109179932119
 20
8.756283750755699
 30
0.0
 11
0.4437002263914707
 21
8.922299609938193
 31
0.0
  0
LINE
  5
C8867
330
C8860
100
AcDbEntity
  8
025
100
AcDbLine
 10
1.130109179932006
 20
10.53676099926573
 30
0.0
 11
0.0198462034221763
 21
10.80529080356555
 31
0.0
  0
LINE
  5
C8868
330
C8860
100
AcDbEntity
  8
025
100
AcDbLine
 10
1.130109179932318
 20
9.552093992849137
 30
0.0
 11
0.4437002263912575
 21
8.922299609938306
 31
0.0
  0
LINE
  5
C8869
330
C8860
100
AcDbEntity
  8
025
100
AcDbLine
 10
1.130109179932006
 20
0.8075691905321491
 30
0.0
 11
0.6764813851731475
 21
0.9172842630227648
 31
0.0
  0
LINE
  5
C886A
330
C8860
100
AcDbEntity
  8
025
100
AcDbLine
 10
1.130109179932006
 20
1.579240611959875
 30
0.0
 11
0.6764813851731475
 21
0.9172842630227648
 31
0.0
  0
LINE
  5
C886B
330
C8860
100
AcDbEntity
  8
025
100
AcDbLine
 10
1.130109179932006
 20
2.464927849881831
 30
0.0
 11
0.6887535988519034
 21
1.820879728469947
 31
0.0
  0
LINE
  5
C886C
330
C8860
100
AcDbEntity
  8
025
100
AcDbLine
 10
1.13190674827463
 20
2.775781667220542
 30
0.0
 11
0.0198462034223894
 21
3.044746233991389
 31
0.0
  0
LINE
  5
C886D
330
C8860
100
AcDbEntity
  8
025
100
AcDbLine
 10
0.8424788360644157
 20
3.607204629389855
 30
0.0
 11
0.6654563500486575
 21
3.650019543092611
 31
0.0
  0
LINE
  5
C886E
330
C8860
100
AcDbEntity
  8
025
100
AcDbLine
 10
0.665456350048757
 20
4.647943164759652
 30
0.0
 11
0.4311623116630159
 21
4.704609858693714
 31
0.0
  0
LINE
  5
C886F
330
C8860
100
AcDbEntity
  8
025
100
AcDbLine
 10
0.2749661473531404
 20
3.744464066533652
 30
0.0
 11
0.2749661473530409
 21
5.030804974923512
 31
0.0
  0
LINE
  5
C8870
330
C8860
100
AcDbEntity
  8
025
100
AcDbLine
 10
0.2749661473531404
 20
5.030804974923398
 30
0.0
 11
0.0198462034221763
 21
5.092508652399942
 31
0.0
  0
LINE
  5
C8871
330
C8860
100
AcDbEntity
  8
025
100
AcDbLine
 10
-0.0000001000094301
 20
0.2733295877919488
 30
0.0
 11
-0.0000001000094301
 21
1.14703669191013
 31
0.0
  0
LINE
  5
C8872
330
C8860
100
AcDbEntity
  8
025
100
AcDbLine
 10
0.2343284124368381
 20
1.0124282144819
 30
0.0
 11
0.2343284124367386
 21
1.38590146051186
 31
0.0
  0
LINE
  5
C8873
330
C8860
100
AcDbEntity
  8
025
100
AcDbLine
 10
0.5313249219870926
 20
0.9405962104661682
 30
0.0
 11
0.5313249219869931
 21
1.33275522118069
 31
0.0
  0
LINE
  5
C8874
330
C8860
100
AcDbEntity
  8
025
100
AcDbLine
 10
0.5313249219871921
 20
0.9405962104661682
 30
0.0
 11
0.2343284124368381
 21
1.0124282144819
 31
0.0
  0
ARC
  5
C8875
330
C8860
100
AcDbEntity
  8
025
100
AcDbCircle
 10
0.371059118161142
 20
1.592039280717074
 30
0.0
 40
0.0951775710152387
100
AcDbArc
 50
38.1839711471313
 51
158.2490475434139
  0
ARC
  5
C8876
330
C8860
100
AcDbEntity
  8
025
100
AcDbCircle
 10
0.0297409591898941
 20
1.369905750762029
 30
0.0
 40
0.5021050440105496
100
AcDbArc
 50
22.13000306555858
 51
34.02720735554431
  0
ARC
  5
C8877
330
C8860
100
AcDbEntity
  8
025
100
AcDbCircle
 10
1.236799794201573
 20
1.310750258793774
 30
0.0
 40
1.005284325142522
100
AcDbArc
 50
161.6455103864364
 51
175.7127876944537
  0
ARC
  5
C8878
330
C8860
100
AcDbEntity
  8
025
100
AcDbCircle
 10
-0.704298889308447
 20
1.249720418261176
 30
0.0
 40
1.238410667563944
100
AcDbArc
 50
3.844537043720297
 51
14.46462793712257
  0
ARC
  5
C8879
330
C8860
100
AcDbEntity
  8
025
100
AcDbCircle
 10
8.830985001533889
 20
1.277902227677628
 30
0.0
 40
8.832292839063081
100
AcDbArc
 50
174.6766834374581
 51
180.9859764706914
  0
ARC
  5
C887A
330
C8860
100
AcDbEntity
  8
025
100
AcDbCircle
 10
0.6540046388921184
 20
2.079206419212965
 30
0.0
 40
0.6174849073933837
100
AcDbArc
 50
141.5368561519617
 51
152.0150412414135
  0
ARC
  5
C887B
330
C8860
100
AcDbEntity
  8
025
100
AcDbCircle
 10
0.3143506801997091
 20
2.352998611957758
 30
0.0
 40
0.1809778547936378
100
AcDbArc
 50
70.39974372020579
 51
141.4142278388704
  0
ARC
  5
C887C
330
C8860
100
AcDbEntity
  8
025
100
AcDbCircle
 10
0.2270150205803958
 20
2.179625983805266
 30
0.0
 40
0.3735506362003468
100
AcDbArc
 50
16.58188649066303
 51
68.14695643463645
  0
ARC
  5
C887D
330
C8860
100
AcDbEntity
  8
025
100
AcDbCircle
 10
-1.204269443673183
 20
1.644393584499738
 30
0.0
 40
1.901232126423404
100
AcDbArc
 50
5.326277560067369
 51
19.52599257429317
  0
ARC
  5
C887E
330
C8860
100
AcDbEntity
  8
025
100
AcDbCircle
 10
1.415981313182541
 20
1.881827874848852
 30
0.0
 40
1.395070001599236
100
AcDbArc
 50
159.5629863253704
 51
171.7316922401682
  0
LINE
  5
C887F
330
C8860
100
AcDbEntity
  8
025
100
AcDbLine
 10
0.4311623116630159
 20
3.706686237026843
 30
0.0
 11
0.4311623116631154
 21
4.7046098586938
 31
0.0
  0
LINE
  5
C8880
330
C8860
100
AcDbEntity
  8
025
100
AcDbLine
 10
0.665456350048757
 20
3.650019543092497
 30
0.0
 11
0.6654563500486575
 21
4.647943164759652
 31
0.0
  0
LINE
  5
C8881
330
C8860
100
AcDbEntity
  8
025
100
AcDbLine
 10
0.4311623116631154
 20
3.70668623702673
 30
0.0
 11
0.2749661473530409
 21
3.744464066533737
 31
0.0
  0
LINE
  5
C8882
330
C8860
100
AcDbEntity
  8
025
100
AcDbLine
 10
0.0198462034223894
 20
3.044746233991389
 30
0.0
 11
0.0198462034221763
 21
5.092508652399942
 31
0.0
  0
LINE
  5
C8883
330
C8860
100
AcDbEntity
  8
025
100
AcDbLine
 10
0.0198462034223894
 20
6.237556655519739
 30
0.0
 11
0.0198462034223894
 21
7.159925705831454
 31
0.0
  0
LINE
  5
C8884
330
C8860
100
AcDbEntity
  8
025
100
AcDbLine
 10
0.4210142232531382
 20
6.562617037207814
 30
0.0
 11
0.7383480598575574
 21
6.728773767021237
 31
0.0
  0
LINE
  5
C8885
330
C8860
100
AcDbEntity
  8
025
100
AcDbLine
 10
0.7383480598575574
 20
6.263511551463608
 30
0.0
 11
0.4210142232529393
 21
6.562617037208013
 31
0.0
  0
LINE
  5
C8886
330
C8860
100
AcDbEntity
  8
025
100
AcDbLine
 10
0.7383480598575574
 20
6.263511551463608
 30
0.0
 11
0.7383480598575574
 21
6.728773767021124
 31
0.0
  0
LINE
  5
C8887
330
C8860
100
AcDbEntity
  8
025
100
AcDbLine
 10
0.0198462034224889
 20
8.303493738715502
 30
0.0
 11
0.0198462034223894
 21
9.268697767002237
 31
0.0
  0
LINE
  5
C8888
330
C8860
100
AcDbEntity
  8
025
100
AcDbLine
 10
0.6836629371637742
 20
9.877763321925328
 30
0.0
 11
0.0198462034223894
 21
9.268697767002237
 31
0.0
  0
LINE
  5
C8889
330
C8860
100
AcDbEntity
  8
025
100
AcDbLine
 10
0.0198462034223894
 20
10.03831499425323
 30
0.0
 11
0.0198462034221763
 21
10.80529080356555
 31
0.0
  0
LINE
  5
C888A
330
C8860
100
AcDbEntity
  8
025
100
AcDbLine
 10
0.0198462034224889
 20
8.533404795173595
 30
0.0
 11
0.0190513215018911
 21
8.532675474604474
 31
0.0
  0
LINE
  5
C888B
330
C8860
100
AcDbEntity
  8
025
100
AcDbLine
 10
0.6836629371637742
 20
9.877763321925328
 30
0.0
 11
0.0198462034223894
 21
10.03831499425323
 31
0.0
  0
LINE
  5
C888C
330
C8860
100
AcDbEntity
  8
025
100
AcDbLine
 10
1.130109179932119
 20
5.89425404848373
 30
0.0
 11
0.9934684199484706
 21
6.023045863830958
 31
0.0
  0
LINE
  5
C888D
330
C8860
100
AcDbEntity
  8
025
100
AcDbLine
 10
1.13190674827463
 20
4.823544085629123
 30
0.0
 11
0.8424788360644157
 21
4.89354553777963
 31
0.0
  0
LINE
  5
C888E
330
C8860
100
AcDbEntity
  8
025
100
AcDbLine
 10
1.130109179932119
 20
5.191069616992194
 30
0.0
 11
1.130109179932119
 21
5.89425404848373
 31
0.0
  0
LINE
  5
C888F
330
C8860
100
AcDbEntity
  8
025
100
AcDbLine
 10
1.130109179932006
 20
1.579240611959875
 30
0.0
 11
1.130109179932006
 21
2.486045639796486
 31
0.0
  0
LINE
  5
C8890
330
C8860
100
AcDbEntity
  8
025
100
AcDbLine
 10
0.8424788360645152
 20
3.607204629390054
 30
0.0
 11
0.8424788360644157
 21
4.893545537779715
 31
0.0
  0
LINE
  5
C8891
330
C8860
100
AcDbEntity
  8
025
100
AcDbLine
 10
1.130109179932119
 20
2.776216429691629
 30
0.0
 11
1.130109179931906
 21
4.823978848100324
 31
0.0
  0
LINE
  5
C8892
330
C8860
100
AcDbEntity
  8
025
100
AcDbLine
 10
1.130109179932006
 20
6.933900794368838
 30
0.0
 11
1.130109179932006
 21
7.741261964780676
 31
0.0
  0
LINE
  5
C8893
330
C8860
100
AcDbEntity
  8
025
100
AcDbLine
 10
0.9934684199483712
 20
6.862355376833335
 30
0.0
 11
1.130109179932006
 21
6.933900794368838
 31
0.0
  0
LINE
  5
C8894
330
C8860
100
AcDbEntity
  8
025
100
AcDbLine
 10
0.9934684199484706
 20
6.023045863830958
 30
0.0
 11
0.9934684199485701
 21
6.862355376833335
 31
0.0
  0
LINE
  5
C8895
330
C8860
100
AcDbEntity
  8
025
100
AcDbLine
 10
1.130109179932119
 20
8.034963934415969
 30
0.0
 11
1.130109179932119
 21
8.756283750755699
 31
0.0
  0
LINE
  5
C8896
330
C8860
100
AcDbEntity
  8
025
100
AcDbLine
 10
1.130109179932219
 20
9.55209399284925
 30
0.0
 11
1.130109179932119
 21
10.53676099926562
 31
0.0
  0
ENDBLK
  5
C8898
330
C8860
100
AcDbEntity
  8
0
100
AcDbBlockEnd
  0
BLOCK
  5
C889B
330
C8899
100
AcDbEntity
  8
0
100
AcDbBlockBegin
  2
A$C2F3C3381
 70
     0
 10
0.0
 20
0.0
 30
0.0
  3
A$C2F3C3381
  1

  0
INSERT
  5
C889A
330
C8899
100
AcDbEntity
  8
BEM1
100
AcDbBlockReference
  2
A$C36291E6D
 10
0.0000006027721611
 20
0.0000003624370493
 30
0.0
  0
ENDBLK
  5
C889C
330
C8899
100
AcDbEntity
  8
0
100
AcDbBlockEnd
  0
BLOCK
  5
C88CE
330
C889E
100
AcDbEntity
  8
0
100
AcDbBlockBegin
  2
A$C28B10802
 70
     0
 10
0.0
 20
0.0
 30
0.0
  3
A$C28B10802
  1

  0
INSERT
  5
C889F
330
C889E
100
AcDbEntity
  8
035
100
AcDbBlockReference
 66
     1
  2
ZKOPF-REAN
 10
200.0000005146979
 20
-0.0000001757185961
 30
0.0
 41
0.9999999999999998
 42
0.9999999999999998
 43
0.9999999999999998
  0
ATTRIB
  5
C88A0
330
C889F
100
AcDbEntity
  8
0
 62
     4
100
AcDbText
 10
184.8333338480312
 20
36.99999982428141
 30
0.0
 40
2.5
  1
Battlogg
  7
SCRIPTS
 72
     1
 11
191.5000005146979
 21
36.99999982428141
 31
0.0
100
AcDbAttribute
  2
NAME
 70
     0
  0
ATTRIB
  5
C88A1
330
C889F
100
AcDbEntity
  8
0
 62
     4
100
AcDbText
 10
170.3958338480313
 20
36.99999982428141
 30
0.0
 40
2.5
  1
04.04.02
 41
0.7
 51
15.0
 72
     1
 11
175.5000005146979
 21
36.99999982428141
 31
0.0
100
AcDbAttribute
  2
DATE
 70
     0
  0
ATTRIB
  5
C88A2
330
C889F
100
AcDbEntity
  8
0
 62
     4
100
AcDbText
 10
119.5000005146979
 20
35.9999998242814
 30
0.0
 40
2.5
  1

 41
0.7
 51
15.0
 72
     1
 11
119.5000005146979
 21
35.9999998242814
 31
0.0
100
AcDbAttribute
  2
WERKSTOFF
 70
     0
  0
ATTRIB
  5
C88A3
330
C889F
100
AcDbEntity
  8
0
 62
     2
100
AcDbText
 10
96.33333384803128
 20
12.4999998242814
 30
0.0
 40
5.0
  1
NYS 226
 41
0.7
 51
15.0
 72
     1
 11
108.0000005146979
 21
12.4999998242814
 31
0.0
100
AcDbAttribute
  2
BENENNUNG
 70
     0
  0
ATTRIB
  5
C88A4
330
C889F
100
AcDbEntity
  8
0
 62
     3
100
AcDbText
 10
91.9720439128193
 20
21.08219127480834
 30
0.0
 40
3.5
  1
3.5 mm Mono Plugs
 41
0.7
 51
15.0
 72
     1
 11
110.9595439128193
 21
21.08219127480834
 31
0.0
100
AcDbAttribute
  2
TEIL
 70
     0
  0
ATTRIB
  5
C88A5
330
C889F
100
AcDbEntity
  8
0
 62
     3
100
AcDbText
 10
164.5456147654548
 20
1.976540840819199
 30
0.0
 40
3.5
  1
3102 ST 22 66
 41
0.7
 51
15.0
 72
     1
 11
179.4497814321215
 21
1.976540840819199
 31
0.0
100
AcDbAttribute
  2
NUMMER
 70
     0
  0
ATTRIB
  5
C88A6
330
C889F
100
AcDbEntity
  8
0
 62
     2
100
AcDbText
 10
137.1006622105551
 20
34.65605605721594
 30
0.0
 40
5.0
  1
1:1
 41
0.7
 51
15.0
 72
     1
 11
139.4339955438885
 21
34.65605605721594
 31
0.0
100
AcDbAttribute
  2
MASS
 70
     0
  0
ATTRIB
  5
C88A7
330
C889F
100
AcDbEntity
  8
0
 62
     3
100
AcDbText
 10
139.5192995687179
 20
28.2104503634567
 30
0.0
 40
3.5
  1

 41
0.7
 51
15.0
 72
     1
 11
139.5192995687179
 21
28.2104503634567
 31
0.0
100
AcDbAttribute
  2
MASS2
 70
     0
  0
ATTRIB
  5
C88A8
330
C889F
100
AcDbEntity
  8
0
 62
     4
100
AcDbText
 10
119.0000005146979
 20
28.9999998242814
 30
0.0
 40
2.5
  1

 41
0.7
 51
15.0
 72
     1
 11
119.0000005146979
 21
28.9999998242814
 31
0.0
100
AcDbAttribute
  2
TEIL
 70
     0
  0
ATTRIB
  5
C88A9
330
C889F
100
AcDbEntity
  8
0
 62
     3
100
AcDbText
 10
92.28854857413613
 20
59.00431857171084
 30
0.0
 40
3.5
  1

 41
0.7
 51
15.0
100
AcDbAttribute
  2
TOL
 70
     0
  0
ATTRIB
  5
C88AA
330
C889F
100
AcDbEntity
  8
0
 62
     3
100
AcDbText
 10
92.28854857413613
 20
54.00431857171084
 30
0.0
 40
3.5
  1

 41
0.7
 51
15.0
100
AcDbAttribute
  2
RADIEN
 70
     0
  0
ATTRIB
  5
C88AB
330
C889F
100
AcDbEntity
  8
0
 62
     3
100
AcDbText
 10
92.28854857413613
 20
49.00431857171084
 30
0.0
 40
3.5
  1

 41
0.7
 51
15.0
100
AcDbAttribute
  2
FACETTE
 70
     0
  0
ATTRIB
  5
C88AC
330
C889F
100
AcDbEntity
  8
0
 62
     4
100
AcDbText
 10
2.81373325631532
 20
6.999999824281402
 30
0.0
 40
2.5
  1

 41
0.7
 51
15.0
100
AcDbAttribute
  2
INDEX1
 70
     0
  0
ATTRIB
  5
C88AD
330
C889F
100
AcDbEntity
  8
0
 62
     4
100
AcDbText
 10
9.651257911147661
 20
6.999999824281402
 30
0.0
 40
2.5
  1

 41
0.7
 51
15.0
100
AcDbAttribute
  2
A1
 70
     0
  0
ATTRIB
  5
C88AE
330
C889F
100
AcDbEntity
  8
0
 62
     4
100
AcDbText
 10
42.65125791114765
 20
6.999999824281402
 30
0.0
 40
2.5
  1

 41
0.7
 51
15.0
100
AcDbAttribute
  2
DATUM1
 70
     0
  0
ATTRIB
  5
C88AF
330
C889F
100
AcDbEntity
  8
0
 62
     4
100
AcDbText
 10
55.53501037663096
 20
6.999999824281402
 30
0.0
 40
2.5
  1

 41
0.7
 51
15.0
100
AcDbAttribute
  2
NAME1
 70
     0
  0
ATTRIB
  5
C88B0
330
C889F
100
AcDbEntity
  8
0
 62
     4
100
AcDbText
 10
2.81373325631532
 20
11.9999998242814
 30
0.0
 40
2.5
  1

 41
0.7
 51
15.0
100
AcDbAttribute
  2
INDEX2
 70
     0
  0
ATTRIB
  5
C88B1
330
C889F
100
AcDbEntity
  8
0
 62
     4
100
AcDbText
 10
9.651257911147661
 20
11.9999998242814
 30
0.0
 40
2.5
  1

 41
0.7
 51
15.0
100
AcDbAttribute
  2
A2
 70
     0
  0
ATTRIB
  5
C88B2
330
C889F
100
AcDbEntity
  8
0
 62
     4
100
AcDbText
 10
42.65125791114765
 20
11.9999998242814
 30
0.0
 40
2.5
  1

 41
0.7
 51
15.0
100
AcDbAttribute
  2
DATUM2
 70
     0
  0
ATTRIB
  5
C88B3
330
C889F
100
AcDbEntity
  8
0
 62
     4
100
AcDbText
 10
55.53501037663096
 20
11.9999998242814
 30
0.0
 40
2.5
  1

 41
0.7
 51
15.0
100
AcDbAttribute
  2
NAME2
 70
     0
  0
ATTRIB
  5
C88B4
330
C889F
100
AcDbEntity
  8
0
 62
     4
100
AcDbText
 10
2.81373325631532
 20
16.9999998242814
 30
0.0
 40
2.5
  1

 41
0.7
 51
15.0
100
AcDbAttribute
  2
INDEX3
 70
     0
  0
ATTRIB
  5
C88B5
330
C889F
100
AcDbEntity
  8
0
 62
     4
100
AcDbText
 10
9.651257911147661
 20
16.9999998242814
 30
0.0
 40
2.5
  1

 41
0.7
 51
15.0
100
AcDbAttribute
  2
A3
 70
     0
  0
ATTRIB
  5
C88B6
330
C889F
100
AcDbEntity
  8
0
 62
     4
100
AcDbText
 10
42.65125791114765
 20
16.9999998242814
 30
0.0
 40
2.5
  1

 41
0.7
 51
15.0
100
AcDbAttribute
  2
DATUM3
 70
     0
  0
ATTRIB
  5
C88B7
330
C889F
100
AcDbEntity
  8
0
 62
     4
100
AcDbText
 10
55.53501037663096
 20
16.9999998242814
 30
0.0
 40
2.5
  1

 41
0.7
 51
15.0
100
AcDbAttribute
  2
NAME3
 70
     0
  0
ATTRIB
  5
C88B8
330
C889F
100
AcDbEntity
  8
0
 62
     4
100
AcDbText
 10
2.81373325631532
 20
21.9999998242814
 30
0.0
 40
2.5
  1

 41
0.7
 51
15.0
100
AcDbAttribute
  2
INDEX4
 70
     0
  0
ATTRIB
  5
C88B9
330
C889F
100
AcDbEntity
  8
0
 62
     4
100
AcDbText
 10
9.651257911147661
 20
21.9999998242814
 30
0.0
 40
2.5
  1

 41
0.7
 51
15.0
100
AcDbAttribute
  2
A4
 70
     0
  0
ATTRIB
  5
C88BA
330
C889F
100
AcDbEntity
  8
0
 62
     4
100
AcDbText
 10
42.65125791114765
 20
21.9999998242814
 30
0.0
 40
2.5
  1

 41
0.7
 51
15.0
100
AcDbAttribute
  2
DATUM4
 70
     0
  0
ATTRIB
  5
C88BB
330
C889F
100
AcDbEntity
  8
0
 62
     4
100
AcDbText
 10
55.53501037663096
 20
21.9999998242814
 30
0.0
 40
2.5
  1

 41
0.7
 51
15.0
100
AcDbAttribute
  2
NAME4
 70
     0
  0
ATTRIB
  5
C88BC
330
C889F
100
AcDbEntity
  8
0
 62
     4
100
AcDbText
 10
2.81373325631532
 20
26.99999982428141
 30
0.0
 40
2.5
  1

 41
0.7
 51
15.0
100
AcDbAttribute
  2
INDEX5
 70
     0
  0
ATTRIB
  5
C88BD
330
C889F
100
AcDbEntity
  8
0
 62
     4
100
AcDbText
 10
9.651257911147661
 20
26.99999982428141
 30
0.0
 40
2.5
  1

 41
0.7
 51
15.0
100
AcDbAttribute
  2
A5
 70
     0
  0
ATTRIB
  5
C88BE
330
C889F
100
AcDbEntity
  8
0
 62
     4
100
AcDbText
 10
42.65125791114765
 20
26.99999982428141
 30
0.0
 40
2.5
  1

 41
0.7
 51
15.0
100
AcDbAttribute
  2
DATUM5
 70
     0
  0
ATTRIB
  5
C88BF
330
C889F
100
AcDbEntity
  8
0
 62
     4
100
AcDbText
 10
55.53501037663096
 20
26.99999982428141
 30
0.0
 40
2.5
  1

 41
0.7
 51
15.0
100
AcDbAttribute
  2
NAME5
 70
     0
  0
ATTRIB
  5
C88C0
330
C889F
100
AcDbEntity
  8
0
 62
     4
100
AcDbText
 10
2.81373325631532
 20
31.99999982428141
 30
0.0
 40
2.5
  1

 41
0.7
 51
15.0
100
AcDbAttribute
  2
INDEX6
 70
     0
  0
ATTRIB
  5
C88C1
330
C889F
100
AcDbEntity
  8
0
 62
     4
100
AcDbText
 10
9.651257911147661
 20
31.99999982428141
 30
0.0
 40
2.5
  1

 41
0.7
 51
15.0
100
AcDbAttribute
  2
A6
 70
     0
  0
ATTRIB
  5
C88C2
330
C889F
100
AcDbEntity
  8
0
 62
     4
100
AcDbText
 10
42.65125791114765
 20
31.99999982428141
 30
0.0
 40
2.5
  1

 41
0.7
 51
15.0
100
AcDbAttribute
  2
DATUM6
 70
     0
  0
ATTRIB
  5
C88C3
330
C889F
100
AcDbEntity
  8
0
 62
     4
100
AcDbText
 10
55.53501037663096
 20
31.99999982428141
 30
0.0
 40
2.5
  1

 41
0.7
 51
15.0
100
AcDbAttribute
  2
NAME6
 70
     0
  0
ATTRIB
  5
C88C4
330
C889F
100
AcDbEntity
  8
0
 62
     4
100
AcDbText
 10
2.81373325631532
 20
36.99999982428141
 30
0.0
 40
2.5
  1

 41
0.7
 51
15.0
100
AcDbAttribute
  2
INDEX7
 70
     0
  0
ATTRIB
  5
C88C5
330
C889F
100
AcDbEntity
  8
0
 62
     4
100
AcDbText
 10
9.651257911147661
 20
36.99999982428141
 30
0.0
 40
2.5
  1

 41
0.7
 51
15.0
100
AcDbAttribute
  2
A7
 70
     0
  0
ATTRIB
  5
C88C6
330
C889F
100
AcDbEntity
  8
0
 62
     4
100
AcDbText
 10
42.65125791114765
 20
36.99999982428141
 30
0.0
 40
2.5
  1

 41
0.7
 51
15.0
100
AcDbAttribute
  2
DATUM7
 70
     0
  0
ATTRIB
  5
C88C7
330
C889F
100
AcDbEntity
  8
0
 62
     4
100
AcDbText
 10
55.53501037663096
 20
36.99999982428141
 30
0.0
 40
2.5
  1

 41
0.7
 51
15.0
100
AcDbAttribute
  2
NAME7
 70
     0
  0
ATTRIB
  5
C88C8
330
C889F
100
AcDbEntity
  8
0
 62
     4
100
AcDbText
 10
2.81373325631532
 20
41.99999982428139
 30
0.0
 40
2.5
  1

 41
0.7
 51
15.0
100
AcDbAttribute
  2
INDEX8
 70
     0
  0
ATTRIB
  5
C88C9
330
C889F
100
AcDbEntity
  8
0
 62
     4
100
AcDbText
 10
9.651257911147661
 20
41.99999982428139
 30
0.0
 40
2.5
  1

 41
0.7
 51
15.0
100
AcDbAttribute
  2
A8
 70
     0
  0
ATTRIB
  5
C88CA
330
C889F
100
AcDbEntity
  8
0
 62
     4
100
AcDbText
 10
42.65125791114765
 20
41.99999982428139
 30
0.0
 40
2.5
  1

 41
0.7
 51
15.0
100
AcDbAttribute
  2
DATUM8
 70
     0
  0
ATTRIB
  5
C88CB
330
C889F
100
AcDbEntity
  8
0
 62
     4
100
AcDbText
 10
55.53501037663096
 20
41.99999982428139
 30
0.0
 40
2.5
  1

 41
0.7
 51
15.0
100
AcDbAttribute
  2
NAME8
 70
     0
  0
SEQEND
  5
C88CC
330
C889F
100
AcDbEntity
  8
035
  0
INSERT
  5
C88CD
330
C889E
100
AcDbEntity
  8
035
100
AcDbBlockReference
  2
A$C2F3C3381
 10
102.1682550498002
 20
165.6669983891791
 30
0.0
 41
1.5
 42
1.5
 43
1.5
  0
ENDBLK
  5
C88CF
330
C889E
100
AcDbEntity
  8
0
100
AcDbBlockEnd
  0
BLOCK
  5
C88FF
330
C88D0
100
AcDbEntity
  8
0
100
AcDbBlockBegin
  2
A$C2F4C26AB
 70
     0
 10
0.0
 20
0.0
 30
0.0
  3
A$C2F4C26AB
  1

  0
INSERT
  5
C88D1
330
C88D0
100
AcDbEntity
  8
035
100
AcDbBlockReference
 66
     1
  2
ZKOPF-REAN
 10
199.999999977676
 20
-0.0000001398551603
 30
0.0
  0
ATTRIB
  5
C88D2
330
C88D1
100
AcDbEntity
  8
0
 62
     4
100
AcDbText
 10
184.8333333110093
 20
36.99999986014484
 30
0.0
 40
2.5
  1
Battlogg
  7
SCRIPTS
 72
     1
 11
191.499999977676
 21
36.99999986014484
 31
0.0
100
AcDbAttribute
  2
NAME
 70
     0
  0
ATTRIB
  5
C88D3
330
C88D1
100
AcDbEntity
  8
0
 62
     4
100
AcDbText
 10
169.2291666443426
 20
36.99999986014484
 30
0.0
 40
2.5
  1
08.11.2004
 41
0.7
 51
15.0
 72
     1
 11
175.499999977676
 21
36.99999986014484
 31
0.0
100
AcDbAttribute
  2
DATE
 70
     0
  0
ATTRIB
  5
C88D4
330
C88D1
100
AcDbEntity
  8
0
 62
     4
100
AcDbText
 10
119.499999977676
 20
35.99999986014484
 30
0.0
 40
2.5
  1

 41
0.7
 51
15.0
 72
     1
 11
119.499999977676
 21
35.99999986014484
 31
0.0
100
AcDbAttribute
  2
WERKSTOFF
 70
     0
  0
ATTRIB
  5
C88D5
330
C88D1
100
AcDbEntity
  8
0
 62
     2
100
AcDbText
 10
96.91666664434267
 20
12.49999986014484
 30
0.0
 40
5.0
  1
NYS 217
 41
0.7
 51
15.0
 72
     1
 11
107.999999977676
 21
12.49999986014484
 31
0.0
100
AcDbAttribute
  2
BENENNUNG
 70
     0
  0
ATTRIB
  5
C88D6
330
C88D1
100
AcDbEntity
  8
0
 62
     3
100
AcDbText
 10
93.80954337579735
 20
21.08219131067178
 30
0.0
 40
3.5
  1
1/4" Phone Jack
 41
0.7
 51
15.0
 72
     1
 11
110.9595433757973
 21
21.08219131067178
 31
0.0
100
AcDbAttribute
  2
TEIL
 70
     0
  0
ATTRIB
  5
C88D7
330
C88D1
100
AcDbEntity
  8
0
 62
     3
100
AcDbText
 10
164.7497808950996
 20
1.976540876682634
 30
0.0
 40
3.5
  1
3102 ST 22 02
 41
0.7
 51
15.0
 72
     1
 11
179.4497808950996
 21
1.976540876682634
 31
0.0
100
AcDbAttribute
  2
NUMMER
 70
     0
  0
ATTRIB
  5
C88D8
330
C88D1
100
AcDbEntity
  8
0
 62
     2
100
AcDbText
 10
136.5173283401999
 20
34.65605609307937
 30
0.0
 40
5.0
  1
2:1
 41
0.7
 51
15.0
 72
     1
 11
139.4339950068665
 21
34.65605609307937
 31
0.0
100
AcDbAttribute
  2
MASS
 70
     0
  0
ATTRIB
  5
C88D9
330
C88D1
100
AcDbEntity
  8
0
 62
     3
100
AcDbText
 10
139.5192990316959
 20
28.21045039932014
 30
0.0
 40
3.5
  1

 41
0.7
 51
15.0
 72
     1
 11
139.5192990316959
 21
28.21045039932014
 31
0.0
100
AcDbAttribute
  2
MASS2
 70
     0
  0
ATTRIB
  5
C88DA
330
C88D1
100
AcDbEntity
  8
0
 62
     4
100
AcDbText
 10
118.999999977676
 20
28.99999986014484
 30
0.0
 40
2.5
  1

 41
0.7
 51
15.0
 72
     1
 11
118.999999977676
 21
28.99999986014484
 31
0.0
100
AcDbAttribute
  2
TEIL
 70
     0
  0
ATTRIB
  5
C88DB
330
C88D1
100
AcDbEntity
  8
0
 62
     3
100
AcDbText
 10
92.28854803711413
 20
59.00431860757428
 30
0.0
 40
3.5
  1

 41
0.7
 51
15.0
100
AcDbAttribute
  2
TOL
 70
     0
  0
ATTRIB
  5
C88DC
330
C88D1
100
AcDbEntity
  8
0
 62
     3
100
AcDbText
 10
92.28854803711413
 20
54.00431860757428
 30
0.0
 40
3.5
  1

 41
0.7
 51
15.0
100
AcDbAttribute
  2
RADIEN
 70
     0
  0
ATTRIB
  5
C88DD
330
C88D1
100
AcDbEntity
  8
0
 62
     3
100
AcDbText
 10
92.28854803711413
 20
49.00431860757428
 30
0.0
 40
3.5
  1

 41
0.7
 51
15.0
100
AcDbAttribute
  2
FACETTE
 70
     0
  0
ATTRIB
  5
C88DE
330
C88D1
100
AcDbEntity
  8
0
 62
     4
100
AcDbText
 10
2.813732719293341
 20
6.999999860144839
 30
0.0
 40
2.5
  1
A
 41
0.7
 51
15.0
100
AcDbAttribute
  2
INDEX1
 70
     0
  0
ATTRIB
  5
C88DF
330
C88D1
100
AcDbEntity
  8
0
 62
     4
100
AcDbText
 10
9.651257374125691
 20
6.999999860144839
 30
0.0
 40
2.5
  1
Tear Drop
 41
0.7
 51
15.0
100
AcDbAttribute
  2
A1
 70
     0
  0
ATTRIB
  5
C88E0
330
C88D1
100
AcDbEntity
  8
0
 62
     4
100
AcDbText
 10
42.65125737412569
 20
6.999999860144839
 30
0.0
 40
2.5
  1
26.06..96
 41
0.7
 51
15.0
100
AcDbAttribute
  2
DATUM1
 70
     0
  0
ATTRIB
  5
C88E1
330
C88D1
100
AcDbEntity
  8
0
 62
     4
100
AcDbText
 10
55.53500983960896
 20
6.999999860144839
 30
0.0
 40
2.5
  1
Batlog
 41
0.7
 51
15.0
100
AcDbAttribute
  2
NAME1
 70
     0
  0
ATTRIB
  5
C88E2
330
C88D1
100
AcDbEntity
  8
0
 62
     4
100
AcDbText
 10
2.813732719293341
 20
11.99999986014484
 30
0.0
 40
2.5
  1
B
 41
0.7
 51
15.0
100
AcDbAttribute
  2
INDEX2
 70
     0
  0
ATTRIB
  5
C88E3
330
C88D1
100
AcDbEntity
  8
0
 62
     4
100
AcDbText
 10
9.651257374125691
 20
11.99999986014484
 30
0.0
 40
2.5
  1
6 x %%c1.50 (1.30)
 41
0.7
 51
15.0
100
AcDbAttribute
  2
A2
 70
     0
  0
ATTRIB
  5
C88E4
330
C88D1
100
AcDbEntity
  8
0
 62
     4
100
AcDbText
 10
42.65125737412569
 20
11.99999986014484
 30
0.0
 40
2.5
  1
31.10.96
 41
0.7
 51
15.0
100
AcDbAttribute
  2
DATUM2
 70
     0
  0
ATTRIB
  5
C88E5
330
C88D1
100
AcDbEntity
  8
0
 62
     4
100
AcDbText
 10
55.53500983960896
 20
11.99999986014484
 30
0.0
 40
2.5
  1
Batlog
 41
0.7
 51
15.0
100
AcDbAttribute
  2
NAME2
 70
     0
  0
ATTRIB
  5
C88E6
330
C88D1
100
AcDbEntity
  8
0
 62
     4
100
AcDbText
 10
2.813732719293341
 20
16.99999986014484
 30
0.0
 40
2.5
  1

 41
0.7
 51
15.0
100
AcDbAttribute
  2
INDEX3
 70
     0
  0
ATTRIB
  5
C88E7
330
C88D1
100
AcDbEntity
  8
0
 62
     4
100
AcDbText
 10
9.651257374125691
 20
16.99999986014484
 30
0.0
 40
2.5
  1

 41
0.7
 51
15.0
100
AcDbAttribute
  2
A3
 70
     0
  0
ATTRIB
  5
C88E8
330
C88D1
100
AcDbEntity
  8
0
 62
     4
100
AcDbText
 10
42.65125737412569
 20
16.99999986014484
 30
0.0
 40
2.5
  1

 41
0.7
 51
15.0
100
AcDbAttribute
  2
DATUM3
 70
     0
  0
ATTRIB
  5
C88E9
330
C88D1
100
AcDbEntity
  8
0
 62
     4
100
AcDbText
 10
55.53500983960896
 20
16.99999986014484
 30
0.0
 40
2.5
  1

 41
0.7
 51
15.0
100
AcDbAttribute
  2
NAME3
 70
     0
  0
ATTRIB
  5
C88EA
330
C88D1
100
AcDbEntity
  8
0
 62
     4
100
AcDbText
 10
2.813732719293341
 20
21.99999986014484
 30
0.0
 40
2.5
  1

 41
0.7
 51
15.0
100
AcDbAttribute
  2
INDEX4
 70
     0
  0
ATTRIB
  5
C88EB
330
C88D1
100
AcDbEntity
  8
0
 62
     4
100
AcDbText
 10
9.651257374125691
 20
21.99999986014484
 30
0.0
 40
2.5
  1

 41
0.7
 51
15.0
100
AcDbAttribute
  2
A4
 70
     0
  0
ATTRIB
  5
C88EC
330
C88D1
100
AcDbEntity
  8
0
 62
     4
100
AcDbText
 10
42.65125737412569
 20
21.99999986014484
 30
0.0
 40
2.5
  1

 41
0.7
 51
15.0
100
AcDbAttribute
  2
DATUM4
 70
     0
  0
ATTRIB
  5
C88ED
330
C88D1
100
AcDbEntity
  8
0
 62
     4
100
AcDbText
 10
55.53500983960896
 20
21.99999986014484
 30
0.0
 40
2.5
  1

 41
0.7
 51
15.0
100
AcDbAttribute
  2
NAME4
 70
     0
  0
ATTRIB
  5
C88EE
330
C88D1
100
AcDbEntity
  8
0
 62
     4
100
AcDbText
 10
2.813732719293341
 20
26.99999986014484
 30
0.0
 40
2.5
  1

 41
0.7
 51
15.0
100
AcDbAttribute
  2
INDEX5
 70
     0
  0
ATTRIB
  5
C88EF
330
C88D1
100
AcDbEntity
  8
0
 62
     4
100
AcDbText
 10
9.651257374125691
 20
26.99999986014484
 30
0.0
 40
2.5
  1

 41
0.7
 51
15.0
100
AcDbAttribute
  2
A5
 70
     0
  0
ATTRIB
  5
C88F0
330
C88D1
100
AcDbEntity
  8
0
 62
     4
100
AcDbText
 10
42.65125737412569
 20
26.99999986014484
 30
0.0
 40
2.5
  1

 41
0.7
 51
15.0
100
AcDbAttribute
  2
DATUM5
 70
     0
  0
ATTRIB
  5
C88F1
330
C88D1
100
AcDbEntity
  8
0
 62
     4
100
AcDbText
 10
55.53500983960896
 20
26.99999986014484
 30
0.0
 40
2.5
  1

 41
0.7
 51
15.0
100
AcDbAttribute
  2
NAME5
 70
     0
  0
ATTRIB
  5
C88F2
330
C88D1
100
AcDbEntity
  8
0
 62
     4
100
AcDbText
 10
2.813732719293341
 20
31.99999986014484
 30
0.0
 40
2.5
  1

 41
0.7
 51
15.0
100
AcDbAttribute
  2
INDEX6
 70
     0
  0
ATTRIB
  5
C88F3
330
C88D1
100
AcDbEntity
  8
0
 62
     4
100
AcDbText
 10
9.651257374125691
 20
31.99999986014484
 30
0.0
 40
2.5
  1

 41
0.7
 51
15.0
100
AcDbAttribute
  2
A6
 70
     0
  0
ATTRIB
  5
C88F4
330
C88D1
100
AcDbEntity
  8
0
 62
     4
100
AcDbText
 10
42.65125737412569
 20
31.99999986014484
 30
0.0
 40
2.5
  1

 41
0.7
 51
15.0
100
AcDbAttribute
  2
DATUM6
 70
     0
  0
ATTRIB
  5
C88F5
330
C88D1
100
AcDbEntity
  8
0
 62
     4
100
AcDbText
 10
55.53500983960896
 20
31.99999986014484
 30
0.0
 40
2.5
  1

 41
0.7
 51
15.0
100
AcDbAttribute
  2
NAME6
 70
     0
  0
ATTRIB
  5
C88F6
330
C88D1
100
AcDbEntity
  8
0
 62
     4
100
AcDbText
 10
2.813732719293341
 20
36.99999986014484
 30
0.0
 40
2.5
  1

 41
0.7
 51
15.0
100
AcDbAttribute
  2
INDEX7
 70
     0
  0
ATTRIB
  5
C88F7
330
C88D1
100
AcDbEntity
  8
0
 62
     4
100
AcDbText
 10
9.651257374125691
 20
36.99999986014484
 30
0.0
 40
2.5
  1

 41
0.7
 51
15.0
100
AcDbAttribute
  2
A7
 70
     0
  0
ATTRIB
  5
C88F8
330
C88D1
100
AcDbEntity
  8
0
 62
     4
100
AcDbText
 10
42.65125737412569
 20
36.99999986014484
 30
0.0
 40
2.5
  1

 41
0.7
 51
15.0
100
AcDbAttribute
  2
DATUM7
 70
     0
  0
ATTRIB
  5
C88F9
330
C88D1
100
AcDbEntity
  8
0
 62
     4
100
AcDbText
 10
55.53500983960896
 20
36.99999986014484
 30
0.0
 40
2.5
  1

 41
0.7
 51
15.0
100
AcDbAttribute
  2
NAME7
 70
     0
  0
ATTRIB
  5
C88FA
330
C88D1
100
AcDbEntity
  8
0
 62
     4
100
AcDbText
 10
2.813732719293341
 20
41.99999986014484
 30
0.0
 40
2.5
  1

 41
0.7
 51
15.0
100
AcDbAttribute
  2
INDEX8
 70
     0
  0
ATTRIB
  5
C88FB
330
C88D1
100
AcDbEntity
  8
0
 62
     4
100
AcDbText
 10
9.651257374125691
 20
41.99999986014484
 30
0.0
 40
2.5
  1

 41
0.7
 51
15.0
100
AcDbAttribute
  2
A8
 70
     0
  0
ATTRIB
  5
C88FC
330
C88D1
100
AcDbEntity
  8
0
 62
     4
100
AcDbText
 10
42.65125737412569
 20
41.99999986014484
 30
0.0
 40
2.5
  1

 41
0.7
 51
15.0
100
AcDbAttribute
  2
DATUM8
 70
     0
  0
ATTRIB
  5
C88FD
330
C88D1
100
AcDbEntity
  8
0
 62
     4
100
AcDbText
 10
55.53500983960896
 20
41.99999986014484
 30
0.0
 40
2.5
  1

 41
0.7
 51
15.0
100
AcDbAttribute
  2
NAME8
 70
     0
  0
SEQEND
  5
C88FE
330
C88D1
100
AcDbEntity
  8
035
  0
ENDBLK
  5
C8900
330
C88D0
100
AcDbEntity
  8
0
100
AcDbBlockEnd
  0
ENDSEC
  0
SECTION
  2
ENTITIES
  0
INSERT
  5
30
330
C6443
100
AcDbEntity
  8
ASHADE
 62
     1
100
AcDbBlockReference
  2
AVE_RENDER
 10
0.0
 20
0.0
 30
0.0
1001
AVE_RENDER
1002
{
1070
     2
1000
Pref
1070
    40
1070
    20
1070
     1
1070
     0
1000

1070
    10
1070
     0
1070
    30
1040
1.0
1070
     1
1040
0.3
1040
0.7
1040
0.0
1040
10.0
1010
-1.0
1020
-1.0
1030
-1.0
1040
0.3
1070
    49
1002
}
  0
INSERT
  5
31
330
C6443
100
AcDbEntity
  8
ASHADE
 62
     3
100
AcDbBlockReference
  2
AVE_RENDER
 10
0.0
 20
0.0
 30
0.0
1001
AVE_RENDER
1002
{
1070
     0
1000
Full Opt
1070
     0
1070
     1
1070
     1
1070
     1
1070
     0
1070
     0
1070
     0
1070
     1
1070
     1
1040
0.0001
1040
0.0001
1002
}
  0
INSERT
  5
32
330
C6443
100
AcDbEntity
  8
ASHADE
 62
     4
100
AcDbBlockReference
  2
AVE_RENDER
 10
0.0
 20
0.0
 30
0.0
1001
AVE_RENDER
1002
{
1070
     0
1000
Quick Opt
1070
     0
1070
     1
1070
     1
1070
     1
1070
     1
1070
     0
1070
     1
1002
}
  0
INSERT
  5
36
330
C6443
100
AcDbEntity
  8
05
100
AcDbBlockReference
  2
NT_1
 10
98.70934145934439
 20
147.8406513925157
 30
0.0
 41
32.61699988186843
 42
-6.863009327815802
 43
32.61699988186843
  0
INSERT
  5
5EDB
330
C6443
100
AcDbEntity
  8
ASHADE
 62
     1
100
AcDbBlockReference
  2
AVE_RENDER
 10
139.2584724732869
 20
319.7443918769097
 30
0.0
1001
AVE_RENDER
1002
{
1070
     2
1000
Pref
1070
    40
1070
    20
1070
     1
1070
     0
1000

1070
    10
1070
     0
1070
    30
1040
1.0
1070
     1
1040
0.3
1040
0.7
1040
0.0
1040
10.0
1010
-1.0
1020
-1.0
1030
-1.0
1040
0.3
1070
    49
1002
}
  0
INSERT
  5
5EDC
330
C6443
100
AcDbEntity
  8
ASHADE
 62
     3
100
AcDbBlockReference
  2
AVE_RENDER
 10
139.2584724732869
 20
319.7443918769097
 30
0.0
1001
AVE_RENDER
1002
{
1070
     0
1000
Full Opt
1070
     0
1070
     1
1070
     1
1070
     1
1070
     0
1070
     0
1070
     0
1070
     1
1070
     1
1040
0.0001
1040
0.0001
1002
}
  0
INSERT
  5
5EDD
330
C6443
100
AcDbEntity
  8
ASHADE
 62
     4
100
AcDbBlockReference
  2
AVE_RENDER
 10
139.2584724732869
 20
319.7443918769097
 30
0.0
1001
AVE_RENDER
1002
{
1070
     0
1000
Quick Opt
1070
     0
1070
     1
1070
     1
1070
     1
1070
     1
1070
     0
1070
     1
1002
}
  0
INSERT
  5
5EDE
330
C6443
100
AcDbEntity
  8
05
100
AcDbBlockReference
  2
NT_1
 10
237.9678139326313
 20
467.5850432694254
 30
0.0
 41
32.61699988186843
 42
-6.863009327815802
 43
32.61699988186843
  0
TEXT
  5
6557
330
C6443
100
AcDbEntity
  8
035
100
AcDbText
 10
742.3353595962167
 20
834.3718110572311
 30
0.0
 40
3.5
  1
  
 41
0.7
 51
15.0
100
AcDbText
  0
INSERT
  5
6C6B
330
C6443
100
AcDbEntity
  8
ASHADE
 62
     1
100
AcDbBlockReference
  2
AVE_RENDER
 10
14.10550881943845
 20
318.0254856299184
 30
0.0
1001
AVE_RENDER
1002
{
1070
     2
1000
Pref
1070
    40
1070
    20
1070
     1
1070
     0
1000

1070
    10
1070
     0
1070
    30
1040
1.0
1070
     1
1040
0.3
1040
0.7
1040
0.0
1040
10.0
1010
-1.0
1020
-1.0
1030
-1.0
1040
0.3
1070
    49
1002
}
  0
INSERT
  5
6C6C
330
C6443
100
AcDbEntity
  8
ASHADE
 62
     3
100
AcDbBlockReference
  2
AVE_RENDER
 10
14.10550881943845
 20
318.0254856299184
 30
0.0
1001
AVE_RENDER
1002
{
1070
     0
1000
Full Opt
1070
     0
1070
     1
1070
     1
1070
     1
1070
     0
1070
     0
1070
     0
1070
     1
1070
     1
1040
0.0001
1040
0.0001
1002
}
  0
INSERT
  5
6C6D
330
C6443
100
AcDbEntity
  8
ASHADE
 62
     4
100
AcDbBlockReference
  2
AVE_RENDER
 10
14.10550881943845
 20
318.0254856299184
 30
0.0
1001
AVE_RENDER
1002
{
1070
     0
1000
Quick Opt
1070
     0
1070
     1
1070
     1
1070
     1
1070
     1
1070
     0
1070
     1
1002
}
  0
INSERT
  5
6C71
330
C6443
100
AcDbEntity
  8
05
100
AcDbBlockReference
  2
NT_1
 10
112.8148502787828
 20
465.8661370224341
 30
0.0
 41
32.61699988186843
 42
-6.863009327815802
 43
32.61699988186843
  0
INSERT
  5
CB16
330
C6443
100
AcDbEntity
  8
ASHADE
 62
     1
100
AcDbBlockReference
  2
AVE_RENDER
 10
153.3639812927254
 20
637.7698775068282
 30
0.0
1001
AVE_RENDER
1002
{
1070
     2
1000
Pref
1070
    40
1070
    20
1070
     1
1070
     0
1000

1070
    10
1070
     0
1070
    30
1040
1.0
1070
     1
1040
0.3
1040
0.7
1040
0.0
1040
10.0
1010
-1.0
1020
-1.0
1030
-1.0
1040
0.3
1070
    49
1002
}
  0
INSERT
  5
CB17
330
C6443
100
AcDbEntity
  8
ASHADE
 62
     3
100
AcDbBlockReference
  2
AVE_RENDER
 10
153.3639812927254
 20
637.7698775068282
 30
0.0
1001
AVE_RENDER
1002
{
1070
     0
1000
Full Opt
1070
     0
1070
     1
1070
     1
1070
     1
1070
     0
1070
     0
1070
     0
1070
     1
1070
     1
1040
0.0001
1040
0.0001
1002
}
  0
INSERT
  5
CB18
330
C6443
100
AcDbEntity
  8
ASHADE
 62
     4
100
AcDbBlockReference
  2
AVE_RENDER
 10
153.3639812927254
 20
637.7698775068282
 30
0.0
1001
AVE_RENDER
1002
{
1070
     0
1000
Quick Opt
1070
     0
1070
     1
1070
     1
1070
     1
1070
     1
1070
     0
1070
     1
1002
}
  0
INSERT
  5
CB19
330
C6443
100
AcDbEntity
  8
05
100
AcDbBlockReference
  2
NT_1
 10
252.0733227520698
 20
785.6105288993439
 30
0.0
 41
32.61699988186843
 42
-6.863009327815802
 43
32.61699988186843
  0
TEXT
  5
CE91
330
C6443
100
AcDbEntity
  8
025
100
AcDbText
 10
457.3331437018294
 20
249.3701526071671
 30
0.0
 40
2.5
  1

 41
0.9
 51
10.0
  7
HELV
100
AcDbText
  0
INSERT
  5
D021
330
C6443
100
AcDbEntity
  8
ASHADE
 62
     1
100
AcDbBlockReference
  2
AVE_RENDER
 10
177.79262395928
 20
318.4517507900362
 30
0.0
1001
AVE_RENDER
1002
{
1070
     2
1000
Pref
1070
    40
1070
    20
1070
     1
1070
     0
1000

1070
    10
1070
     0
1070
    30
1040
1.0
1070
     1
1040
0.3
1040
0.7
1040
0.0
1040
10.0
1010
-1.0
1020
-1.0
1030
-1.0
1040
0.3
1070
    49
1002
}
  0
INSERT
  5
D022
330
C6443
100
AcDbEntity
  8
ASHADE
 62
     3
100
AcDbBlockReference
  2
AVE_RENDER
 10
177.79262395928
 20
318.4517507900362
 30
0.0
1001
AVE_RENDER
1002
{
1070
     0
1000
Full Opt
1070
     0
1070
     1
1070
     1
1070
     1
1070
     0
1070
     0
1070
     0
1070
     1
1070
     1
1040
0.0001
1040
0.0001
1002
}
  0
INSERT
  5
D023
330
C6443
100
AcDbEntity
  8
ASHADE
 62
     4
100
AcDbBlockReference
  2
AVE_RENDER
 10
177.79262395928
 20
318.4517507900362
 30
0.0
1001
AVE_RENDER
1002
{
1070
     0
1000
Quick Opt
1070
     0
1070
     1
1070
     1
1070
     1
1070
     1
1070
     0
1070
     1
1002
}
  0
INSERT
  5
D027
330
C6443
100
AcDbEntity
  8
05
100
AcDbBlockReference
  2
NT_1
 10
276.5019654186244
 20
466.2924021825518
 30
0.0
 41
32.61699988186843
 42
-6.863009327815802
 43
32.61699988186843
  0
INSERT
  5
F83A
330
C6443
100
AcDbEntity
  8
ASHADE
 62
     1
100
AcDbBlockReference
  2
AVE_RENDER
 10
483.6441267764611
 20
320.0624368616868
 30
0.0
1001
AVE_RENDER
1002
{
1070
     2
1000
Pref
1070
    40
1070
    20
1070
     1
1070
     0
1000

1070
    10
1070
     0
1070
    30
1040
1.0
1070
     1
1040
0.3
1040
0.7
1040
0.0
1040
10.0
1010
-1.0
1020
-1.0
1030
-1.0
1040
0.3
1070
    49
1002
}
  0
INSERT
  5
F83B
330
C6443
100
AcDbEntity
  8
ASHADE
 62
     3
100
AcDbBlockReference
  2
AVE_RENDER
 10
483.6441267764611
 20
320.0624368616868
 30
0.0
1001
AVE_RENDER
1002
{
1070
     0
1000
Full Opt
1070
     0
1070
     1
1070
     1
1070
     1
1070
     0
1070
     0
1070
     0
1070
     1
1070
     1
1040
0.0001
1040
0.0001
1002
}
  0
INSERT
  5
F83C
330
C6443
100
AcDbEntity
  8
ASHADE
 62
     4
100
AcDbBlockReference
  2
AVE_RENDER
 10
483.6441267764611
 20
320.0624368616868
 30
0.0
1001
AVE_RENDER
1002
{
1070
     0
1000
Quick Opt
1070
     0
1070
     1
1070
     1
1070
     1
1070
     1
1070
     0
1070
     1
1002
}
  0
INSERT
  5
F840
330
C6443
100
AcDbEntity
  8
05
100
AcDbBlockReference
  2
NT_1
 10
582.3534682358054
 20
467.9030882542025
 30
0.0
 41
32.61699988186843
 42
-6.863009327815802
 43
32.61699988186843
  0
INSERT
  5
13B62
330
C6443
100
AcDbEntity
  8
025
100
AcDbBlockReference
  2
ACAD
 10
177.79262395928
 20
318.4517507900362
 30
0.0
  0
INSERT
  5
18666
330
C6443
100
AcDbEntity
  8
ASHADE
 62
     1
100
AcDbBlockReference
  2
AVE_RENDER
 10
474.79262395928
 20
318.4517507900362
 30
0.0
1001
AVE_RENDER
1002
{
1070
     2
1000
Pref
1070
    40
1070
    20
1070
     1
1070
     0
1000

1070
    10
1070
     0
1070
    30
1040
1.0
1070
     1
1040
0.3
1040
0.7
1040
0.0
1040
10.0
1010
-1.0
1020
-1.0
1030
-1.0
1040
0.3
1070
    49
1002
}
  0
INSERT
  5
18667
330
C6443
100
AcDbEntity
  8
ASHADE
 62
     3
100
AcDbBlockReference
  2
AVE_RENDER
 10
474.79262395928
 20
318.4517507900362
 30
0.0
1001
AVE_RENDER
1002
{
1070
     0
1000
Full Opt
1070
     0
1070
     1
1070
     1
1070
     1
1070
     0
1070
     0
1070
     0
1070
     1
1070
     1
1040
0.0001
1040
0.0001
1002
}
  0
INSERT
  5
18668
330
C6443
100
AcDbEntity
  8
ASHADE
 62
     4
100
AcDbBlockReference
  2
AVE_RENDER
 10
474.79262395928
 20
318.4517507900362
 30
0.0
1001
AVE_RENDER
1002
{
1070
     0
1000
Quick Opt
1070
     0
1070
     1
1070
     1
1070
     1
1070
     1
1070
     0
1070
     1
1002
}
  0
INSERT
  5
1866C
330
C6443
100
AcDbEntity
  8
05
100
AcDbBlockReference
  2
NT_1
 10
573.5019654186244
 20
466.2924021825518
 30
0.0
 41
32.61699988186843
 42
-6.863009327815802
 43
32.61699988186843
  0
INSERT
  5
1AE7F
330
C6443
100
AcDbEntity
  8
ASHADE
 62
     1
100
AcDbBlockReference
  2
AVE_RENDER
 10
780.6441267764611
 20
320.0624368616868
 30
0.0
1001
AVE_RENDER
1002
{
1070
     2
1000
Pref
1070
    40
1070
    20
1070
     1
1070
     0
1000

1070
    10
1070
     0
1070
    30
1040
1.0
1070
     1
1040
0.3
1040
0.7
1040
0.0
1040
10.0
1010
-1.0
1020
-1.0
1030
-1.0
1040
0.3
1070
    49
1002
}
  0
INSERT
  5
1AE80
330
C6443
100
AcDbEntity
  8
ASHADE
 62
     3
100
AcDbBlockReference
  2
AVE_RENDER
 10
780.6441267764611
 20
320.0624368616868
 30
0.0
1001
AVE_RENDER
1002
{
1070
     0
1000
Full Opt
1070
     0
1070
     1
1070
     1
1070
     1
1070
     0
1070
     0
1070
     0
1070
     1
1070
     1
1040
0.0001
1040
0.0001
1002
}
  0
INSERT
  5
1AE81
330
C6443
100
AcDbEntity
  8
ASHADE
 62
     4
100
AcDbBlockReference
  2
AVE_RENDER
 10
780.6441267764611
 20
320.0624368616868
 30
0.0
1001
AVE_RENDER
1002
{
1070
     0
1000
Quick Opt
1070
     0
1070
     1
1070
     1
1070
     1
1070
     1
1070
     0
1070
     1
1002
}
  0
INSERT
  5
1AE85
330
C6443
100
AcDbEntity
  8
05
100
AcDbBlockReference
  2
NT_1
 10
879.3534682358055
 20
467.9030882542025
 30
0.0
 41
32.61699988186843
 42
-6.863009327815802
 43
32.61699988186843
  0
INSERT
  5
1F1A7
330
C6443
100
AcDbEntity
  8
025
100
AcDbBlockReference
  2
ACAD
 10
474.79262395928
 20
318.4517507900362
 30
0.0
  0
INSERT
  5
2812E
330
C6443
100
AcDbEntity
  8
ASHADE
 62
     1
100
AcDbBlockReference
  2
AVE_RENDER
 10
248.1967214690312
 20
315.7794257781181
 30
0.0
1001
AVE_RENDER
1002
{
1070
     2
1000
Pref
1070
    40
1070
    20
1070
     1
1070
     0
1000

1070
    10
1070
     0
1070
    30
1040
1.0
1070
     1
1040
0.3
1040
0.7
1040
0.0
1040
10.0
1010
-1.0
1020
-1.0
1030
-1.0
1040
0.3
1070
    49
1002
}
  0
INSERT
  5
2812F
330
C6443
100
AcDbEntity
  8
ASHADE
 62
     3
100
AcDbBlockReference
  2
AVE_RENDER
 10
248.1967214690312
 20
315.7794257781181
 30
0.0
1001
AVE_RENDER
1002
{
1070
     0
1000
Full Opt
1070
     0
1070
     1
1070
     1
1070
     1
1070
     0
1070
     0
1070
     0
1070
     1
1070
     1
1040
0.0001
1040
0.0001
1002
}
  0
INSERT
  5
28130
330
C6443
100
AcDbEntity
  8
ASHADE
 62
     4
100
AcDbBlockReference
  2
AVE_RENDER
 10
248.1967214690312
 20
315.7794257781181
 30
0.0
1001
AVE_RENDER
1002
{
1070
     0
1000
Quick Opt
1070
     0
1070
     1
1070
     1
1070
     1
1070
     1
1070
     0
1070
     1
1002
}
  0
INSERT
  5
28134
330
C6443
100
AcDbEntity
  8
05
100
AcDbBlockReference
  2
NT_1
 10
346.9060629283756
 20
463.6200771706338
 30
0.0
 41
32.61699988186843
 42
-6.863009327815802
 43
32.61699988186843
  0
INSERT
  5
2A313
330
C6443
100
AcDbEntity
  8
ASHADE
 62
     1
100
AcDbBlockReference
  2
AVE_RENDER
 10
222.3521795896511
 20
320.2332987002444
 30
0.0
1001
AVE_RENDER
1002
{
1070
     2
1000
Pref
1070
    40
1070
    20
1070
     1
1070
     0
1000

1070
    10
1070
     0
1070
    30
1040
1.0
1070
     1
1040
0.3
1040
0.7
1040
0.0
1040
10.0
1010
-1.0
1020
-1.0
1030
-1.0
1040
0.3
1070
    49
1002
}
  0
INSERT
  5
2A314
330
C6443
100
AcDbEntity
  8
ASHADE
 62
     3
100
AcDbBlockReference
  2
AVE_RENDER
 10
222.3521795896511
 20
320.2332987002444
 30
0.0
1001
AVE_RENDER
1002
{
1070
     0
1000
Full Opt
1070
     0
1070
     1
1070
     1
1070
     1
1070
     0
1070
     0
1070
     0
1070
     1
1070
     1
1040
0.0001
1040
0.0001
1002
}
  0
INSERT
  5
2A315
330
C6443
100
AcDbEntity
  8
ASHADE
 62
     4
100
AcDbBlockReference
  2
AVE_RENDER
 10
222.3521795896511
 20
320.2332987002444
 30
0.0
1001
AVE_RENDER
1002
{
1070
     0
1000
Quick Opt
1070
     0
1070
     1
1070
     1
1070
     1
1070
     1
1070
     0
1070
     1
1002
}
  0
INSERT
  5
2A319
330
C6443
100
AcDbEntity
  8
05
100
AcDbBlockReference
  2
NT_1
 10
321.0615210489955
 20
468.0739500927601
 30
0.0
 41
32.61699988186843
 42
-6.863009327815802
 43
32.61699988186843
  0
INSERT
  5
2BC33
330
C6443
100
AcDbEntity
  8
025
100
AcDbBlockReference
  2
ACAD
 10
0.0
 20
0.0
 30
0.0
  0
INSERT
  5
2C19F
330
C6443
100
AcDbEntity
  8
BEM1
100
AcDbBlockReference
  2
ACAD
 10
0.0
 20
0.0
 30
0.0
  0
TEXT
  5
2DD8B
330
C6443
100
AcDbEntity
  8
035
100
AcDbText
 10
950.7896974820706
 20
673.501531893767
 30
0.0
 40
3.5
  1
  
 41
0.7
 51
15.0
100
AcDbText
  0
TEXT
  5
2DF0A
330
C6443
100
AcDbEntity
  8
035
100
AcDbText
 10
978.4736515041217
 20
819.6105050104291
 30
0.0
 40
3.5
  1
  
 41
0.7
 51
15.0
100
AcDbText
  0
TEXT
  5
2DF0B
330
C6443
100
AcDbEntity
  8
035
100
AcDbText
 10
928.4816663389156
 20
938.6992746015137
 30
0.0
 40
3.5
  1
  
 41
0.7
 51
15.0
100
AcDbText
  0
TEXT
  5
2DF0C
330
C6443
100
AcDbEntity
  8
035
100
AcDbText
 10
1009.084383720612
 20
848.6962589431106
 30
0.0
 40
3.5
  1
  
 41
0.7
 51
15.0
100
AcDbText
  0
TEXT
  5
2DF0D
330
C6443
100
AcDbEntity
  8
035
100
AcDbText
 10
959.0923985554059
 20
967.7850285341952
 30
0.0
 40
3.5
  1
  
 41
0.7
 51
15.0
100
AcDbText
  0
TEXT
  5
2DF0E
330
C6443
100
AcDbEntity
  8
035
100
AcDbText
 10
978.4736515041217
 20
819.6105050104291
 30
0.0
 40
3.5
  1
  
 41
0.7
 51
15.0
100
AcDbText
  0
TEXT
  5
2DF0F
330
C6443
100
AcDbEntity
  8
035
100
AcDbText
 10
928.4816663389156
 20
938.6992746015137
 30
0.0
 40
3.5
  1
  
 41
0.7
 51
15.0
100
AcDbText
  0
TEXT
  5
2DF10
330
C6443
100
AcDbEntity
  8
035
100
AcDbText
 10
1152.777740191463
 20
1044.456035973821
 30
0.0
 40
3.5
  1
  
 41
0.7
 51
15.0
100
AcDbText
  0
TEXT
  5
2DF11
330
C6443
100
AcDbEntity
  8
035
100
AcDbText
 10
1102.785755026257
 20
1163.544805564906
 30
0.0
 40
3.5
  1
  
 41
0.7
 51
15.0
100
AcDbText
  0
INSERT
  5
2E1B5
330
C6443
100
AcDbEntity
  8
ASHADE
 62
     1
100
AcDbBlockReference
  2
AVE_RENDER
 10
244.8241940297788
 20
199.991892440646
 30
0.0
1001
AVE_RENDER
1002
{
1070
     2
1000
Pref
1070
    40
1070
    20
1070
     1
1070
     0
1000

1070
    10
1070
     0
1070
    30
1040
1.0
1070
     1
1040
0.3
1040
0.7
1040
0.0
1040
10.0
1010
-1.0
1020
-1.0
1030
-1.0
1040
0.3
1070
    49
1002
}
  0
INSERT
  5
2E1B6
330
C6443
100
AcDbEntity
  8
ASHADE
 62
     3
100
AcDbBlockReference
  2
AVE_RENDER
 10
244.8241940297788
 20
199.991892440646
 30
0.0
1001
AVE_RENDER
1002
{
1070
     0
1000
Full Opt
1070
     0
1070
     1
1070
     1
1070
     1
1070
     0
1070
     0
1070
     0
1070
     1
1070
     1
1040
0.0001
1040
0.0001
1002
}
  0
INSERT
  5
2E1B7
330
C6443
100
AcDbEntity
  8
ASHADE
 62
     4
100
AcDbBlockReference
  2
AVE_RENDER
 10
244.8241940297788
 20
199.991892440646
 30
0.0
1001
AVE_RENDER
1002
{
1070
     0
1000
Quick Opt
1070
     0
1070
     1
1070
     1
1070
     1
1070
     1
1070
     0
1070
     1
1002
}
  0
INSERT
  5
2E1BB
330
C6443
100
AcDbEntity
  8
05
100
AcDbBlockReference
  2
NT_1
 10
343.5335354891232
 20
347.8325438331618
 30
0.0
 41
32.61699988186843
 42
-6.863009327815802
 43
32.61699988186843
  0
INSERT
  5
309CE
330
C6443
100
AcDbEntity
  8
ASHADE
 62
     1
100
AcDbBlockReference
  2
AVE_RENDER
 10
550.6756968469598
 20
201.6025785122967
 30
0.0
1001
AVE_RENDER
1002
{
1070
     2
1000
Pref
1070
    40
1070
    20
1070
     1
1070
     0
1000

1070
    10
1070
     0
1070
    30
1040
1.0
1070
     1
1040
0.3
1040
0.7
1040
0.0
1040
10.0
1010
-1.0
1020
-1.0
1030
-1.0
1040
0.3
1070
    49
1002
}
  0
INSERT
  5
309CF
330
C6443
100
AcDbEntity
  8
ASHADE
 62
     3
100
AcDbBlockReference
  2
AVE_RENDER
 10
550.6756968469598
 20
201.6025785122967
 30
0.0
1001
AVE_RENDER
1002
{
1070
     0
1000
Full Opt
1070
     0
1070
     1
1070
     1
1070
     1
1070
     0
1070
     0
1070
     0
1070
     1
1070
     1
1040
0.0001
1040
0.0001
1002
}
  0
INSERT
  5
309D0
330
C6443
100
AcDbEntity
  8
ASHADE
 62
     4
100
AcDbBlockReference
  2
AVE_RENDER
 10
550.6756968469598
 20
201.6025785122967
 30
0.0
1001
AVE_RENDER
1002
{
1070
     0
1000
Quick Opt
1070
     0
1070
     1
1070
     1
1070
     1
1070
     1
1070
     0
1070
     1
1002
}
  0
INSERT
  5
309D4
330
C6443
100
AcDbEntity
  8
05
100
AcDbBlockReference
  2
NT_1
 10
649.3850383063042
 20
349.4432299048124
 30
0.0
 41
32.61699988186843
 42
-6.863009327815802
 43
32.61699988186843
  0
INSERT
  5
34CF6
330
C6443
100
AcDbEntity
  8
025
100
AcDbBlockReference
  2
ACAD
 10
244.8241940297788
 20
199.991892440646
 30
0.0
  0
INSERT
  5
397FA
330
C6443
100
AcDbEntity
  8
ASHADE
 62
     1
100
AcDbBlockReference
  2
AVE_RENDER
 10
541.8241940297788
 20
199.991892440646
 30
0.0
1001
AVE_RENDER
1002
{
1070
     2
1000
Pref
1070
    40
1070
    20
1070
     1
1070
     0
1000

1070
    10
1070
     0
1070
    30
1040
1.0
1070
     1
1040
0.3
1040
0.7
1040
0.0
1040
10.0
1010
-1.0
1020
-1.0
1030
-1.0
1040
0.3
1070
    49
1002
}
  0
INSERT
  5
397FB
330
C6443
100
AcDbEntity
  8
ASHADE
 62
     3
100
AcDbBlockReference
  2
AVE_RENDER
 10
541.8241940297788
 20
199.991892440646
 30
0.0
1001
AVE_RENDER
1002
{
1070
     0
1000
Full Opt
1070
     0
1070
     1
1070
     1
1070
     1
1070
     0
1070
     0
1070
     0
1070
     1
1070
     1
1040
0.0001
1040
0.0001
1002
}
  0
INSERT
  5
397FC
330
C6443
100
AcDbEntity
  8
ASHADE
 62
     4
100
AcDbBlockReference
  2
AVE_RENDER
 10
541.8241940297788
 20
199.991892440646
 30
0.0
1001
AVE_RENDER
1002
{
1070
     0
1000
Quick Opt
1070
     0
1070
     1
1070
     1
1070
     1
1070
     1
1070
     0
1070
     1
1002
}
  0
INSERT
  5
39800
330
C6443
100
AcDbEntity
  8
05
100
AcDbBlockReference
  2
NT_1
 10
640.5335354891231
 20
347.8325438331618
 30
0.0
 41
32.61699988186843
 42
-6.863009327815802
 43
32.61699988186843
  0
INSERT
  5
3C013
330
C6443
100
AcDbEntity
  8
ASHADE
 62
     1
100
AcDbBlockReference
  2
AVE_RENDER
 10
847.6756968469599
 20
201.6025785122967
 30
0.0
1001
AVE_RENDER
1002
{
1070
     2
1000
Pref
1070
    40
1070
    20
1070
     1
1070
     0
1000

1070
    10
1070
     0
1070
    30
1040
1.0
1070
     1
1040
0.3
1040
0.7
1040
0.0
1040
10.0
1010
-1.0
1020
-1.0
1030
-1.0
1040
0.3
1070
    49
1002
}
  0
INSERT
  5
3C014
330
C6443
100
AcDbEntity
  8
ASHADE
 62
     3
100
AcDbBlockReference
  2
AVE_RENDER
 10
847.6756968469599
 20
201.6025785122967
 30
0.0
1001
AVE_RENDER
1002
{
1070
     0
1000
Full Opt
1070
     0
1070
     1
1070
     1
1070
     1
1070
     0
1070
     0
1070
     0
1070
     1
1070
     1
1040
0.0001
1040
0.0001
1002
}
  0
INSERT
  5
3C015
330
C6443
100
AcDbEntity
  8
ASHADE
 62
     4
100
AcDbBlockReference
  2
AVE_RENDER
 10
847.6756968469599
 20
201.6025785122967
 30
0.0
1001
AVE_RENDER
1002
{
1070
     0
1000
Quick Opt
1070
     0
1070
     1
1070
     1
1070
     1
1070
     1
1070
     0
1070
     1
1002
}
  0
INSERT
  5
3C019
330
C6443
100
AcDbEntity
  8
05
100
AcDbBlockReference
  2
NT_1
 10
946.3850383063043
 20
349.4432299048124
 30
0.0
 41
32.61699988186843
 42
-6.863009327815802
 43
32.61699988186843
  0
INSERT
  5
4033B
330
C6443
100
AcDbEntity
  8
025
100
AcDbBlockReference
  2
ACAD
 10
541.8241940297788
 20
199.991892440646
 30
0.0
  0
INSERT
  5
46838
330
C6443
100
AcDbEntity
  8
ASHADE
 62
     1
100
AcDbBlockReference
  2
AVE_RENDER
 10
246.4004908101799
 20
209.8360928675033
 30
0.0
1001
AVE_RENDER
1002
{
1070
     2
1000
Pref
1070
    40
1070
    20
1070
     1
1070
     0
1000

1070
    10
1070
     0
1070
    30
1040
1.0
1070
     1
1040
0.3
1040
0.7
1040
0.0
1040
10.0
1010
-1.0
1020
-1.0
1030
-1.0
1040
0.3
1070
    49
1002
}
  0
INSERT
  5
46839
330
C6443
100
AcDbEntity
  8
ASHADE
 62
     3
100
AcDbBlockReference
  2
AVE_RENDER
 10
246.4004908101799
 20
209.8360928675033
 30
0.0
1001
AVE_RENDER
1002
{
1070
     0
1000
Full Opt
1070
     0
1070
     1
1070
     1
1070
     1
1070
     0
1070
     0
1070
     0
1070
     1
1070
     1
1040
0.0001
1040
0.0001
1002
}
  0
INSERT
  5
4683A
330
C6443
100
AcDbEntity
  8
ASHADE
 62
     4
100
AcDbBlockReference
  2
AVE_RENDER
 10
246.4004908101799
 20
209.8360928675033
 30
0.0
1001
AVE_RENDER
1002
{
1070
     0
1000
Quick Opt
1070
     0
1070
     1
1070
     1
1070
     1
1070
     1
1070
     0
1070
     1
1002
}
  0
INSERT
  5
4683E
330
C6443
100
AcDbEntity
  8
05
100
AcDbBlockReference
  2
NT_1
 10
345.1098322695243
 20
357.676744260019
 30
0.0
 41
32.61699988186843
 42
-6.863009327815802
 43
32.61699988186843
  0
INSERT
  5
49CC2
330
C6443
100
AcDbEntity
  8
05
100
AcDbBlockReference
  2
ACAD
 10
246.4004908101799
 20
209.8360928675033
 30
0.0
  0
INSERT
  5
A6093
330
C6443
100
AcDbEntity
  8
ASHADE
 62
     1
100
AcDbBlockReference
  2
AVE_RENDER
 10
246.4004908101799
 20
419.8360928675033
 30
0.0
1001
AVE_RENDER
1002
{
1070
     2
1000
Pref
1070
    40
1070
    20
1070
     1
1070
     0
1000

1070
    10
1070
     0
1070
    30
1040
1.0
1070
     1
1040
0.3
1040
0.7
1040
0.0
1040
10.0
1010
-1.0
1020
-1.0
1030
-1.0
1040
0.3
1070
    49
1002
}
  0
INSERT
  5
A6094
330
C6443
100
AcDbEntity
  8
ASHADE
 62
     3
100
AcDbBlockReference
  2
AVE_RENDER
 10
246.4004908101799
 20
419.8360928675033
 30
0.0
1001
AVE_RENDER
1002
{
1070
     0
1000
Full Opt
1070
     0
1070
     1
1070
     1
1070
     1
1070
     0
1070
     0
1070
     0
1070
     1
1070
     1
1040
0.0001
1040
0.0001
1002
}
  0
INSERT
  5
A6095
330
C6443
100
AcDbEntity
  8
ASHADE
 62
     4
100
AcDbBlockReference
  2
AVE_RENDER
 10
246.4004908101799
 20
419.8360928675033
 30
0.0
1001
AVE_RENDER
1002
{
1070
     0
1000
Quick Opt
1070
     0
1070
     1
1070
     1
1070
     1
1070
     1
1070
     0
1070
     1
1002
}
  0
INSERT
  5
A6096
330
C6443
100
AcDbEntity
  8
05
100
AcDbBlockReference
  2
NT_1
 10
345.1098322695243
 20
567.6767442600191
 30
0.0
 41
32.61699988186843
 42
-6.863009327815802
 43
32.61699988186843
  0
INSERT
  5
A627D
330
C6443
100
AcDbEntity
  8
05
100
AcDbBlockReference
  2
ACAD
 10
246.4004908101799
 20
419.8360928675033
 30
0.0
  0
INSERT
  5
A6356
330
C6443
100
AcDbEntity
  8
ASHADE
 62
     1
100
AcDbBlockReference
  2
AVE_RENDER
 10
543.4004908101798
 20
419.8360928675033
 30
0.0
1001
AVE_RENDER
1002
{
1070
     2
1000
Pref
1070
    40
1070
    20
1070
     1
1070
     0
1000

1070
    10
1070
     0
1070
    30
1040
1.0
1070
     1
1040
0.3
1040
0.7
1040
0.0
1040
10.0
1010
-1.0
1020
-1.0
1030
-1.0
1040
0.3
1070
    49
1002
}
  0
INSERT
  5
A6357
330
C6443
100
AcDbEntity
  8
ASHADE
 62
     3
100
AcDbBlockReference
  2
AVE_RENDER
 10
543.4004908101798
 20
419.8360928675033
 30
0.0
1001
AVE_RENDER
1002
{
1070
     0
1000
Full Opt
1070
     0
1070
     1
1070
     1
1070
     1
1070
     0
1070
     0
1070
     0
1070
     1
1070
     1
1040
0.0001
1040
0.0001
1002
}
  0
INSERT
  5
A6358
330
C6443
100
AcDbEntity
  8
ASHADE
 62
     4
100
AcDbBlockReference
  2
AVE_RENDER
 10
543.4004908101798
 20
419.8360928675033
 30
0.0
1001
AVE_RENDER
1002
{
1070
     0
1000
Quick Opt
1070
     0
1070
     1
1070
     1
1070
     1
1070
     1
1070
     0
1070
     1
1002
}
  0
INSERT
  5
A6359
330
C6443
100
AcDbEntity
  8
05
100
AcDbBlockReference
  2
NT_1
 10
642.1098322695243
 20
567.6767442600191
 30
0.0
 41
32.61699988186843
 42
-6.863009327815802
 43
32.61699988186843
  0
INSERT
  5
A635A
330
C6443
100
AcDbEntity
  8
05
100
AcDbBlockReference
  2
ACAD
 10
543.4004908101798
 20
419.8360928675033
 30
0.0
  0
INSERT
  5
A635B
330
C6443
100
AcDbEntity
  8
ASHADE
 62
     1
100
AcDbBlockReference
  2
AVE_RENDER
 10
543.4004908101798
 20
419.8360928675033
 30
0.0
1001
AVE_RENDER
1002
{
1070
     2
1000
Pref
1070
    40
1070
    20
1070
     1
1070
     0
1000

1070
    10
1070
     0
1070
    30
1040
1.0
1070
     1
1040
0.3
1040
0.7
1040
0.0
1040
10.0
1010
-1.0
1020
-1.0
1030
-1.0
1040
0.3
1070
    49
1002
}
  0
INSERT
  5
A635C
330
C6443
100
AcDbEntity
  8
ASHADE
 62
     3
100
AcDbBlockReference
  2
AVE_RENDER
 10
543.4004908101798
 20
419.8360928675033
 30
0.0
1001
AVE_RENDER
1002
{
1070
     0
1000
Full Opt
1070
     0
1070
     1
1070
     1
1070
     1
1070
     0
1070
     0
1070
     0
1070
     1
1070
     1
1040
0.0001
1040
0.0001
1002
}
  0
INSERT
  5
A635D
330
C6443
100
AcDbEntity
  8
ASHADE
 62
     4
100
AcDbBlockReference
  2
AVE_RENDER
 10
543.4004908101798
 20
419.8360928675033
 30
0.0
1001
AVE_RENDER
1002
{
1070
     0
1000
Quick Opt
1070
     0
1070
     1
1070
     1
1070
     1
1070
     1
1070
     0
1070
     1
1002
}
  0
INSERT
  5
A635E
330
C6443
100
AcDbEntity
  8
05
100
AcDbBlockReference
  2
NT_1
 10
642.1098322695243
 20
567.6767442600191
 30
0.0
 41
32.61699988186843
 42
-6.863009327815802
 43
32.61699988186843
  0
INSERT
  5
A6366
330
C6443
100
AcDbEntity
  8
05
100
AcDbBlockReference
  2
ACAD
 10
543.4004908101798
 20
419.8360928675033
 30
0.0
  0
INSERT
  5
A63C1
330
C6443
100
AcDbEntity
  8
ASHADE
 62
     1
100
AcDbBlockReference
  2
AVE_RENDER
 10
562.5041654330715
 20
417.847419322276
 30
0.0
1001
AVE_RENDER
1002
{
1070
     2
1000
Pref
1070
    40
1070
    20
1070
     1
1070
     0
1000

1070
    10
1070
     0
1070
    30
1040
1.0
1070
     1
1040
0.3
1040
0.7
1040
0.0
1040
10.0
1010
-1.0
1020
-1.0
1030
-1.0
1040
0.3
1070
    49
1002
}
  0
INSERT
  5
A63C2
330
C6443
100
AcDbEntity
  8
ASHADE
 62
     3
100
AcDbBlockReference
  2
AVE_RENDER
 10
562.5041654330715
 20
417.847419322276
 30
0.0
1001
AVE_RENDER
1002
{
1070
     0
1000
Full Opt
1070
     0
1070
     1
1070
     1
1070
     1
1070
     0
1070
     0
1070
     0
1070
     1
1070
     1
1040
0.0001
1040
0.0001
1002
}
  0
INSERT
  5
A63C3
330
C6443
100
AcDbEntity
  8
ASHADE
 62
     4
100
AcDbBlockReference
  2
AVE_RENDER
 10
562.5041654330715
 20
417.847419322276
 30
0.0
1001
AVE_RENDER
1002
{
1070
     0
1000
Quick Opt
1070
     0
1070
     1
1070
     1
1070
     1
1070
     1
1070
     0
1070
     1
1002
}
  0
INSERT
  5
A63C4
330
C6443
100
AcDbEntity
  8
05
100
AcDbBlockReference
  2
NT_1
 10
661.2135068924159
 20
565.6880707147917
 30
0.0
 41
32.61699988186843
 42
-6.863009327815802
 43
32.61699988186843
  0
INSERT
  5
A63F3
330
C6443
100
AcDbEntity
  8
05
100
AcDbBlockReference
  2
ACAD
 10
562.5041654330715
 20
417.847419322276
 30
0.0
  0
TEXT
  5
A645C
330
C6443
100
AcDbEntity
  8
035
100
AcDbText
 10
1065.919528474979
 20
886.4427919005306
 30
0.0
 40
3.5
  1
  
 41
0.7
 51
15.0
100
AcDbText
  0
INSERT
  5
A6463
330
C6443
100
AcDbEntity
  8
ASHADE
 62
     1
100
AcDbBlockReference
  2
AVE_RENDER
 10
543.4004908101798
 20
419.8360928675033
 30
0.0
1001
AVE_RENDER
1002
{
1070
     2
1000
Pref
1070
    40
1070
    20
1070
     1
1070
     0
1000

1070
    10
1070
     0
1070
    30
1040
1.0
1070
     1
1040
0.3
1040
0.7
1040
0.0
1040
10.0
1010
-1.0
1020
-1.0
1030
-1.0
1040
0.3
1070
    49
1002
}
  0
INSERT
  5
A6464
330
C6443
100
AcDbEntity
  8
ASHADE
 62
     3
100
AcDbBlockReference
  2
AVE_RENDER
 10
543.4004908101798
 20
419.8360928675033
 30
0.0
1001
AVE_RENDER
1002
{
1070
     0
1000
Full Opt
1070
     0
1070
     1
1070
     1
1070
     1
1070
     0
1070
     0
1070
     0
1070
     1
1070
     1
1040
0.0001
1040
0.0001
1002
}
  0
INSERT
  5
A6465
330
C6443
100
AcDbEntity
  8
ASHADE
 62
     4
100
AcDbBlockReference
  2
AVE_RENDER
 10
543.4004908101798
 20
419.8360928675033
 30
0.0
1001
AVE_RENDER
1002
{
1070
     0
1000
Quick Opt
1070
     0
1070
     1
1070
     1
1070
     1
1070
     1
1070
     0
1070
     1
1002
}
  0
INSERT
  5
A6466
330
C6443
100
AcDbEntity
  8
05
100
AcDbBlockReference
  2
NT_1
 10
642.1098322695243
 20
567.6767442600191
 30
0.0
 41
32.61699988186843
 42
-6.863009327815802
 43
32.61699988186843
  0
INSERT
  5
A6652
330
C6443
100
AcDbEntity
  8
05
100
AcDbBlockReference
  2
ACAD
 10
543.4004908101798
 20
419.8360928675033
 30
0.0
  0
INSERT
  5
A6797
330
C6443
100
AcDbEntity
  8
ASHADE
 62
     1
100
AcDbBlockReference
  2
AVE_RENDER
 10
840.4004908101798
 20
419.8360928675033
 30
0.0
1001
AVE_RENDER
1002
{
1070
     2
1000
Pref
1070
    40
1070
    20
1070
     1
1070
     0
1000

1070
    10
1070
     0
1070
    30
1040
1.0
1070
     1
1040
0.3
1040
0.7
1040
0.0
1040
10.0
1010
-1.0
1020
-1.0
1030
-1.0
1040
0.3
1070
    49
1002
}
  0
INSERT
  5
A6798
330
C6443
100
AcDbEntity
  8
ASHADE
 62
     3
100
AcDbBlockReference
  2
AVE_RENDER
 10
840.4004908101798
 20
419.8360928675033
 30
0.0
1001
AVE_RENDER
1002
{
1070
     0
1000
Full Opt
1070
     0
1070
     1
1070
     1
1070
     1
1070
     0
1070
     0
1070
     0
1070
     1
1070
     1
1040
0.0001
1040
0.0001
1002
}
  0
INSERT
  5
A6799
330
C6443
100
AcDbEntity
  8
ASHADE
 62
     4
100
AcDbBlockReference
  2
AVE_RENDER
 10
840.4004908101798
 20
419.8360928675033
 30
0.0
1001
AVE_RENDER
1002
{
1070
     0
1000
Quick Opt
1070
     0
1070
     1
1070
     1
1070
     1
1070
     1
1070
     0
1070
     1
1002
}
  0
INSERT
  5
A679A
330
C6443
100
AcDbEntity
  8
05
100
AcDbBlockReference
  2
NT_1
 10
939.1098322695242
 20
567.6767442600191
 30
0.0
 41
32.61699988186843
 42
-6.863009327815802
 43
32.61699988186843
  0
INSERT
  5
A67B9
330
C6443
100
AcDbEntity
  8
05
100
AcDbBlockReference
  2
ACAD
 10
840.4004908101798
 20
419.8360928675033
 30
0.0
  0
INSERT
  5
A67C1
330
C6443
100
AcDbEntity
  8
ASHADE
 62
     1
100
AcDbBlockReference
  2
AVE_RENDER
 10
840.4004908101798
 20
419.8360928675033
 30
0.0
1001
AVE_RENDER
1002
{
1070
     2
1000
Pref
1070
    40
1070
    20
1070
     1
1070
     0
1000

1070
    10
1070
     0
1070
    30
1040
1.0
1070
     1
1040
0.3
1040
0.7
1040
0.0
1040
10.0
1010
-1.0
1020
-1.0
1030
-1.0
1040
0.3
1070
    49
1002
}
  0
INSERT
  5
A67C2
330
C6443
100
AcDbEntity
  8
ASHADE
 62
     3
100
AcDbBlockReference
  2
AVE_RENDER
 10
840.4004908101798
 20
419.8360928675033
 30
0.0
1001
AVE_RENDER
1002
{
1070
     0
1000
Full Opt
1070
     0
1070
     1
1070
     1
1070
     1
1070
     0
1070
     0
1070
     0
1070
     1
1070
     1
1040
0.0001
1040
0.0001
1002
}
  0
INSERT
  5
A67C3
330
C6443
100
AcDbEntity
  8
ASHADE
 62
     4
100
AcDbBlockReference
  2
AVE_RENDER
 10
840.4004908101798
 20
419.8360928675033
 30
0.0
1001
AVE_RENDER
1002
{
1070
     0
1000
Quick Opt
1070
     0
1070
     1
1070
     1
1070
     1
1070
     1
1070
     0
1070
     1
1002
}
  0
INSERT
  5
A67C4
330
C6443
100
AcDbEntity
  8
05
100
AcDbBlockReference
  2
NT_1
 10
939.1098322695242
 20
567.6767442600191
 30
0.0
 41
32.61699988186843
 42
-6.863009327815802
 43
32.61699988186843
  0
INSERT
  5
A67CC
330
C6443
100
AcDbEntity
  8
05
100
AcDbBlockReference
  2
ACAD
 10
840.4004908101798
 20
419.8360928675033
 30
0.0
  0
INSERT
  5
A682D
330
C6443
100
AcDbEntity
  8
ASHADE
 62
     1
100
AcDbBlockReference
  2
AVE_RENDER
 10
543.4004908101798
 20
209.8360928675033
 30
0.0
1001
AVE_RENDER
1002
{
1070
     2
1000
Pref
1070
    40
1070
    20
1070
     1
1070
     0
1000

1070
    10
1070
     0
1070
    30
1040
1.0
1070
     1
1040
0.3
1040
0.7
1040
0.0
1040
10.0
1010
-1.0
1020
-1.0
1030
-1.0
1040
0.3
1070
    49
1002
}
  0
INSERT
  5
A682E
330
C6443
100
AcDbEntity
  8
ASHADE
 62
     3
100
AcDbBlockReference
  2
AVE_RENDER
 10
543.4004908101798
 20
209.8360928675033
 30
0.0
1001
AVE_RENDER
1002
{
1070
     0
1000
Full Opt
1070
     0
1070
     1
1070
     1
1070
     1
1070
     0
1070
     0
1070
     0
1070
     1
1070
     1
1040
0.0001
1040
0.0001
1002
}
  0
INSERT
  5
A682F
330
C6443
100
AcDbEntity
  8
ASHADE
 62
     4
100
AcDbBlockReference
  2
AVE_RENDER
 10
543.4004908101798
 20
209.8360928675033
 30
0.0
1001
AVE_RENDER
1002
{
1070
     0
1000
Quick Opt
1070
     0
1070
     1
1070
     1
1070
     1
1070
     1
1070
     0
1070
     1
1002
}
  0
INSERT
  5
A6830
330
C6443
100
AcDbEntity
  8
05
100
AcDbBlockReference
  2
NT_1
 10
642.1098322695243
 20
357.676744260019
 30
0.0
 41
32.61699988186843
 42
-6.863009327815802
 43
32.61699988186843
  0
INSERT
  5
A6AAF
330
C6443
100
AcDbEntity
  8
05
100
AcDbBlockReference
  2
ACAD
 10
543.4004908101798
 20
209.8360928675033
 30
0.0
  0
INSERT
  5
A6BA6
330
C6443
100
AcDbEntity
  8
ASHADE
 62
     1
100
AcDbBlockReference
  2
AVE_RENDER
 10
442.4378020914677
 20
192.1506614902996
 30
0.0
1001
AVE_RENDER
1002
{
1070
     2
1000
Pref
1070
    40
1070
    20
1070
     1
1070
     0
1000

1070
    10
1070
     0
1070
    30
1040
1.0
1070
     1
1040
0.3
1040
0.7
1040
0.0
1040
10.0
1010
-1.0
1020
-1.0
1030
-1.0
1040
0.3
1070
    49
1002
}
  0
INSERT
  5
A6BA7
330
C6443
100
AcDbEntity
  8
ASHADE
 62
     3
100
AcDbBlockReference
  2
AVE_RENDER
 10
442.4378020914677
 20
192.1506614902996
 30
0.0
1001
AVE_RENDER
1002
{
1070
     0
1000
Full Opt
1070
     0
1070
     1
1070
     1
1070
     1
1070
     0
1070
     0
1070
     0
1070
     1
1070
     1
1040
0.0001
1040
0.0001
1002
}
  0
INSERT
  5
A6BA8
330
C6443
100
AcDbEntity
  8
ASHADE
 62
     4
100
AcDbBlockReference
  2
AVE_RENDER
 10
442.4378020914677
 20
192.1506614902996
 30
0.0
1001
AVE_RENDER
1002
{
1070
     0
1000
Quick Opt
1070
     0
1070
     1
1070
     1
1070
     1
1070
     1
1070
     0
1070
     1
1002
}
  0
INSERT
  5
A6BAC
330
C6443
100
AcDbEntity
  8
05
100
AcDbBlockReference
  2
NT_1
 10
541.1471435508121
 20
339.9913128828154
 30
0.0
 41
32.61699988186843
 42
-6.863009327815802
 43
32.61699988186843
  0
INSERT
  5
AA030
330
C6443
100
AcDbEntity
  8
05
100
AcDbBlockReference
  2
ACAD
 10
442.4378020914677
 20
192.1506614902996
 30
0.0
  0
INSERT
  5
B323C
330
C6443
100
AcDbEntity
  8
ASHADE
 62
     1
100
AcDbBlockReference
  2
AVE_RENDER
 10
739.4378020914678
 20
192.1506614902996
 30
0.0
1001
AVE_RENDER
1002
{
1070
     2
1000
Pref
1070
    40
1070
    20
1070
     1
1070
     0
1000

1070
    10
1070
     0
1070
    30
1040
1.0
1070
     1
1040
0.3
1040
0.7
1040
0.0
1040
10.0
1010
-1.0
1020
-1.0
1030
-1.0
1040
0.3
1070
    49
1002
}
  0
INSERT
  5
B323D
330
C6443
100
AcDbEntity
  8
ASHADE
 62
     3
100
AcDbBlockReference
  2
AVE_RENDER
 10
739.4378020914678
 20
192.1506614902996
 30
0.0
1001
AVE_RENDER
1002
{
1070
     0
1000
Full Opt
1070
     0
1070
     1
1070
     1
1070
     1
1070
     0
1070
     0
1070
     0
1070
     1
1070
     1
1040
0.0001
1040
0.0001
1002
}
  0
INSERT
  5
B323E
330
C6443
100
AcDbEntity
  8
ASHADE
 62
     4
100
AcDbBlockReference
  2
AVE_RENDER
 10
739.4378020914678
 20
192.1506614902996
 30
0.0
1001
AVE_RENDER
1002
{
1070
     0
1000
Quick Opt
1070
     0
1070
     1
1070
     1
1070
     1
1070
     1
1070
     0
1070
     1
1002
}
  0
INSERT
  5
B323F
330
C6443
100
AcDbEntity
  8
05
100
AcDbBlockReference
  2
NT_1
 10
838.1471435508121
 20
339.9913128828154
 30
0.0
 41
32.61699988186843
 42
-6.863009327815802
 43
32.61699988186843
  0
INSERT
  5
B3525
330
C6443
100
AcDbEntity
  8
05
100
AcDbBlockReference
  2
ACAD
 10
739.4378020914678
 20
192.1506614902996
 30
0.0
  0
INSERT
  5
B35C3
330
C6443
100
AcDbEntity
  8
ASHADE
 62
     1
100
AcDbBlockReference
  2
AVE_RENDER
 10
739.4378020914678
 20
192.1506614902996
 30
0.0
1001
AVE_RENDER
1002
{
1070
     2
1000
Pref
1070
    40
1070
    20
1070
     1
1070
     0
1000

1070
    10
1070
     0
1070
    30
1040
1.0
1070
     1
1040
0.3
1040
0.7
1040
0.0
1040
10.0
1010
-1.0
1020
-1.0
1030
-1.0
1040
0.3
1070
    49
1002
}
  0
INSERT
  5
B35C4
330
C6443
100
AcDbEntity
  8
ASHADE
 62
     3
100
AcDbBlockReference
  2
AVE_RENDER
 10
739.4378020914678
 20
192.1506614902996
 30
0.0
1001
AVE_RENDER
1002
{
1070
     0
1000
Full Opt
1070
     0
1070
     1
1070
     1
1070
     1
1070
     0
1070
     0
1070
     0
1070
     1
1070
     1
1040
0.0001
1040
0.0001
1002
}
  0
INSERT
  5
B35C5
330
C6443
100
AcDbEntity
  8
ASHADE
 62
     4
100
AcDbBlockReference
  2
AVE_RENDER
 10
739.4378020914678
 20
192.1506614902996
 30
0.0
1001
AVE_RENDER
1002
{
1070
     0
1000
Quick Opt
1070
     0
1070
     1
1070
     1
1070
     1
1070
     1
1070
     0
1070
     1
1002
}
  0
INSERT
  5
B35C6
330
C6443
100
AcDbEntity
  8
05
100
AcDbBlockReference
  2
NT_1
 10
838.1471435508121
 20
339.9913128828154
 30
0.0
 41
32.61699988186843
 42
-6.863009327815802
 43
32.61699988186843
  0
INSERT
  5
B38AC
330
C6443
100
AcDbEntity
  8
05
100
AcDbBlockReference
  2
ACAD
 10
739.4378020914678
 20
192.1506614902996
 30
0.0
  0
INSERT
  5
B39E5
330
C6443
100
AcDbEntity
  8
ASHADE
 62
     1
100
AcDbBlockReference
  2
AVE_RENDER
 10
758.5414767143594
 20
190.1619879450722
 30
0.0
1001
AVE_RENDER
1002
{
1070
     2
1000
Pref
1070
    40
1070
    20
1070
     1
1070
     0
1000

1070
    10
1070
     0
1070
    30
1040
1.0
1070
     1
1040
0.3
1040
0.7
1040
0.0
1040
10.0
1010
-1.0
1020
-1.0
1030
-1.0
1040
0.3
1070
    49
1002
}
  0
INSERT
  5
B39E6
330
C6443
100
AcDbEntity
  8
ASHADE
 62
     3
100
AcDbBlockReference
  2
AVE_RENDER
 10
758.5414767143594
 20
190.1619879450722
 30
0.0
1001
AVE_RENDER
1002
{
1070
     0
1000
Full Opt
1070
     0
1070
     1
1070
     1
1070
     1
1070
     0
1070
     0
1070
     0
1070
     1
1070
     1
1040
0.0001
1040
0.0001
1002
}
  0
INSERT
  5
B39E7
330
C6443
100
AcDbEntity
  8
ASHADE
 62
     4
100
AcDbBlockReference
  2
AVE_RENDER
 10
758.5414767143594
 20
190.1619879450722
 30
0.0
1001
AVE_RENDER
1002
{
1070
     0
1000
Quick Opt
1070
     0
1070
     1
1070
     1
1070
     1
1070
     1
1070
     0
1070
     1
1002
}
  0
INSERT
  5
B39EB
330
C6443
100
AcDbEntity
  8
05
100
AcDbBlockReference
  2
NT_1
 10
857.2508181737038
 20
338.002639337588
 30
0.0
 41
32.61699988186843
 42
-6.863009327815802
 43
32.61699988186843
  0
INSERT
  5
B6E6F
330
C6443
100
AcDbEntity
  8
05
100
AcDbBlockReference
  2
ACAD
 10
758.5414767143594
 20
190.1619879450722
 30
0.0
  0
LWPOLYLINE
  5
C7AE4
330
C6443
100
AcDbEntity
  8
RAHMEN
100
AcDbPolyline
 90
        4
 70
     1
 43
0.0
 10
205.0
 20
5.0
 10
205.0
 20
292.0
 10
5.0
 20
292.0
 10
5.0
 20
5.0
  0
LWPOLYLINE
  5
C7AE5
330
C6443
100
AcDbEntity
  8
RAHMEN
 62
     7
100
AcDbPolyline
 90
        5
 70
     0
 43
0.0
 10
210.0
 20
0.0
 10
210.0
 20
297.0
 10
0.0
 20
297.0
 10
0.0
 20
0.0
 10
210.0
 20
0.0
  0
TEXT
  5
C7AE6
330
C6443
100
AcDbEntity
  8
035
100
AcDbText
 10
11.656371584427
 20
136.7472032410949
 30
0.0
 40
3.5
  1
Print-Bohrplan (Bestückungsseite)
  7
ARIAL
100
AcDbText
  0
LINE
  5
C7AE7
330
C6443
100
AcDbEntity
  8
BEM1
100
AcDbLine
 10
75.46341910700118
 20
102.9511680169918
 30
0.0
 11
83.31307131490234
 21
115.2766074067448
 31
0.0
  0
LINE
  5
C7AE8
330
C6443
100
AcDbEntity
  8
BEM1
100
AcDbLine
 10
77.80860691868065
 20
99.65242708083156
 30
0.0
 11
104.8188238646564
 21
99.65242708083156
 31
0.0
  0
LINE
  5
C7AE9
330
C6443
100
AcDbEntity
  8
035
  6
PUNKT
100
AcDbLine
 10
83.85327401765312
 20
103.1524270808315
 30
0.0
 11
38.95327401765303
 21
103.1524270808315
 31
0.0
  0
LINE
  5
C7AEA
330
C6443
100
AcDbEntity
  8
BEM1
100
AcDbLine
 10
76.75010693181639
 20
66.65242708083155
 30
0.0
 11
104.8188238646564
 21
66.65242708083155
 31
0.0
  0
LINE
  5
C7AEB
330
C6443
100
AcDbEntity
  8
MITTE
100
AcDbLine
 10
91.23594200248907
 20
83.15242708083156
 30
0.0
 11
20.39175923990251
 21
83.15242708083156
 31
0.0
  0
LINE
  5
C7AEC
330
C6443
100
AcDbEntity
  8
035
  6
PUNKT
100
AcDbLine
 10
83.85327401765312
 20
63.15242708083133
 30
0.0
 11
38.95327401765303
 21
63.15242708083133
 31
0.0
  0
TEXT
  5
C7AED
330
C6443
100
AcDbEntity
  8
035
100
AcDbText
 10
11.656371584427
 20
130.7472032410949
 30
0.0
 40
3.0
  1
PCB-Layout (component side)
  7
ARIAL
100
AcDbText
  0
SOLID
  5
C7AEE
330
C6443
100
AcDbEntity
  8
BEM1
100
AcDbTrace
 10
75.77702518559101
 20
104.4274063399516
 30
0.0
 11
76.73502388043857
 21
103.76156130409
 31
0.0
 12
74.25848942542995
 22
101.2204877374784
 32
0.0
 13
74.25848942542995
 23
101.2204877374784
 33
0.0
  0
LINE
  5
C7AEF
330
C6443
100
AcDbEntity
  8
035
  6
PUNKT
100
AcDbLine
 10
38.95327401765303
 20
63.15242708083156
 30
0.0
 11
38.95327401765303
 21
103.1524270808315
 31
0.0
  0
LINE
  5
C7AF0
330
C6443
100
AcDbEntity
  8
MITTE
100
AcDbLine
 10
46.95327401765303
 20
102.2524270808314
 30
0.0
 11
46.95327401765303
 21
97.05242708083142
 31
0.0
  0
LINE
  5
C7AF1
330
C6443
100
AcDbEntity
  8
MITTE
100
AcDbLine
 10
59.85327401765312
 20
102.2524270808314
 30
0.0
 11
59.85327401765312
 21
97.05242708083142
 31
0.0
  0
LINE
  5
C7AF2
330
C6443
100
AcDbEntity
  8
MITTE
100
AcDbLine
 10
72.75327401765299
 20
102.2524270808314
 30
0.0
 11
72.75327401765299
 21
97.05242708083142
 31
0.0
  0
LINE
  5
C7AF3
330
C6443
100
AcDbEntity
  8
MITTE
100
AcDbLine
 10
44.35327401765301
 20
99.65242708083156
 30
0.0
 11
49.55327401765305
 21
99.65242708083156
 31
0.0
  0
LINE
  5
C7AF4
330
C6443
100
AcDbEntity
  8
MITTE
100
AcDbLine
 10
44.35327401765301
 20
66.65242708083155
 30
0.0
 11
49.55327401765305
 21
66.65242708083155
 31
0.0
  0
LWPOLYLINE
  5
C7AF5
330
C6443
100
AcDbEntity
  8
035
  6
PUNKT
100
AcDbPolyline
 90
        6
 70
     0
 43
0.0
 10
38.95327401765303
 20
72.65242708083133
 10
23.95327401765303
 20
72.65242708083133
 10
21.95327401765303
 20
74.65242708083133
 10
21.95327401765303
 20
91.65242708083132
 10
23.95327401765303
 20
93.65242708083133
 10
38.95327401765303
 20
93.65242708083133
  0
CIRCLE
  5
C7AF6
330
C6443
100
AcDbEntity
  8
05
100
AcDbCircle
 10
59.853274017653
 20
66.65242708083155
 30
0.0
 40
1.5
  0
LINE
  5
C7AF7
330
C6443
100
AcDbEntity
  8
MITTE
100
AcDbLine
 10
57.25327401765298
 20
66.65242708083155
 30
0.0
 11
62.45327401765303
 21
66.65242708083155
 31
0.0
  0
LINE
  5
C7AF8
330
C6443
100
AcDbEntity
  8
MITTE
100
AcDbLine
 10
59.85327401765312
 20
69.25242708083146
 30
0.0
 11
59.85327401765312
 21
64.05242708083142
 31
0.0
  0
CIRCLE
  5
C7AF9
330
C6443
100
AcDbEntity
  8
05
100
AcDbCircle
 10
46.95327401765303
 20
66.65242708083155
 30
0.0
 40
1.5
  0
LINE
  5
C7AFA
330
C6443
100
AcDbEntity
  8
MITTE
100
AcDbLine
 10
46.95327401765303
 20
69.25242708083146
 30
0.0
 11
46.95327401765303
 21
64.05242708083142
 31
0.0
  0
CIRCLE
  5
C7AFB
330
C6443
100
AcDbEntity
  8
05
100
AcDbCircle
 10
72.75327401765299
 20
66.65242708083155
 30
0.0
 40
1.5
  0
LINE
  5
C7AFC
330
C6443
100
AcDbEntity
  8
MITTE
100
AcDbLine
 10
72.75327401765299
 20
69.25242708083146
 30
0.0
 11
72.75327401765299
 21
64.05242708083142
 31
0.0
  0
LINE
  5
C7AFD
330
C6443
100
AcDbEntity
  8
MITTE
100
AcDbLine
 10
70.15327401765296
 20
66.65242708083155
 30
0.0
 11
75.353274017653
 21
66.65242708083155
 31
0.0
  0
LINE
  5
C7AFE
330
C6443
100
AcDbEntity
  8
MITTE
100
AcDbLine
 10
57.25327401765298
 20
99.65242708083156
 30
0.0
 11
62.45327401765303
 21
99.65242708083156
 31
0.0
  0
CIRCLE
  5
C7AFF
330
C6443
100
AcDbEntity
  8
05
100
AcDbCircle
 10
59.853274017653
 20
99.65242708083156
 30
0.0
 40
1.5
  0
CIRCLE
  5
C7B00
330
C6443
100
AcDbEntity
  8
05
100
AcDbCircle
 10
46.95327401765303
 20
99.65242708083156
 30
0.0
 40
1.5
  0
LINE
  5
C7B01
330
C6443
100
AcDbEntity
  8
MITTE
100
AcDbLine
 10
70.15327401765296
 20
99.65242708083156
 30
0.0
 11
75.353274017653
 21
99.65242708083156
 31
0.0
  0
CIRCLE
  5
C7B02
330
C6443
100
AcDbEntity
  8
05
100
AcDbCircle
 10
72.75327401765299
 20
99.65242708083156
 30
0.0
 40
1.5
  0
TEXT
  5
C7B03
330
C6443
100
AcDbEntity
  8
BEM1
 62
     3
100
AcDbText
 10
38.83847627692943
 20
117.0266074067448
 30
0.0
 40
3.5
  1
4.00
 41
0.7
 51
15.0
 72
     1
 11
42.10514294359609
 21
118.7766074067448
 31
0.0
100
AcDbText
 73
     2
  0
LINE
  5
C7B04
330
C6443
100
AcDbEntity
  8
BEM1
100
AcDbLine
 10
72.75327401765299
 20
115.2766074067448
 30
0.0
 11
27.22819341382797
 21
115.2766074067448
 31
0.0
  0
TEXT
  5
C7B05
330
C6443
100
AcDbEntity
  8
BEM1
 62
     4
100
AcDbText
 10
27.54839339244331
 20
110.5692822409614
 30
0.0
 40
3.0
  1
[.157"]
 41
0.65
 51
15.0
 72
     1
 11
32.09839339244331
 21
112.0692822409614
 31
0.0
100
AcDbText
 73
     2
  0
LINE
  5
C7B06
330
C6443
100
AcDbEntity
  8
BEM1
100
AcDbLine
 10
38.95327401765303
 20
104.1524270808315
 30
0.0
 11
38.95327401765303
 21
116.1595102069346
 31
0.0
  0
SOLID
  5
C7B07
330
C6443
100
AcDbEntity
  8
BEM1
100
AcDbTrace
 10
35.45327401765303
 20
115.8599407400781
 30
0.0
 11
35.45327401765303
 21
114.6932740734114
 31
0.0
 12
38.95327401765303
 22
115.2766074067448
 32
0.0
 13
38.95327401765303
 23
115.2766074067448
 33
0.0
  0
SOLID
  5
C7B08
330
C6443
100
AcDbEntity
  8
BEM1
100
AcDbTrace
 10
63.35327401765312
 20
115.8599407400781
 30
0.0
 11
63.35327401765312
 21
114.6932740734114
 31
0.0
 12
59.85327401765312
 22
115.2766074067448
 32
0.0
 13
59.85327401765312
 23
115.2766074067448
 33
0.0
  0
LINE
  5
C7B09
330
C6443
100
AcDbEntity
  8
BEM1
100
AcDbLine
 10
59.85327401765312
 20
102.7347215338345
 30
0.0
 11
59.85327401765312
 21
116.1595102069345
 31
0.0
  0
LINE
  5
C7B0A
330
C6443
100
AcDbEntity
  8
BEM1
100
AcDbLine
 10
46.95327401765303
 20
102.7347215338345
 30
0.0
 11
46.95327401765303
 21
116.1595102069346
 31
0.0
  0
TEXT
  5
C7B0B
330
C6443
100
AcDbEntity
  8
BEM1
 62
     4
100
AcDbText
 10
48.35852420086744
 20
110.5692822409614
 30
0.0
 40
3.0
  1
[.250"]
 41
0.65
 51
15.0
 72
     1
 11
53.07102420086744
 21
112.0692822409614
 31
0.0
100
AcDbText
 73
     2
  0
TEXT
  5
C7B0C
330
C6443
100
AcDbEntity
  8
BEM1
 62
     3
100
AcDbText
 10
49.72827401765307
 20
117.057905762854
 30
0.0
 40
3.5
  1
6.35
 41
0.7
 51
15.0
 72
     1
 11
53.40327401765307
 21
118.807905762854
 31
0.0
100
AcDbText
 73
     2
  0
SOLID
  5
C7B0D
330
C6443
100
AcDbEntity
  8
BEM1
100
AcDbTrace
 10
50.45327401765303
 20
115.8599407400781
 30
0.0
 11
50.45327401765303
 21
114.6932740734114
 31
0.0
 12
46.95327401765303
 22
115.2766074067448
 32
0.0
 13
46.95327401765303
 23
115.2766074067448
 33
0.0
  0
SOLID
  5
C7B0E
330
C6443
100
AcDbEntity
  8
BEM1
100
AcDbTrace
 10
56.35327401765312
 20
115.8599407400781
 30
0.0
 11
56.35327401765312
 21
114.6932740734114
 31
0.0
 12
59.85327401765312
 22
115.2766074067448
 32
0.0
 13
59.85327401765312
 23
115.2766074067448
 33
0.0
  0
LINE
  5
C7B0F
330
C6443
100
AcDbEntity
  8
BEM1
100
AcDbLine
 10
72.75327401765299
 20
102.7347215338345
 30
0.0
 11
72.75327401765299
 21
116.1595102069345
 31
0.0
  0
TEXT
  5
C7B10
330
C6443
100
AcDbEntity
  8
BEM1
 62
     4
100
AcDbText
 10
61.17366900756881
 20
110.5692822409614
 30
0.0
 40
3.0
  1
[.250"]
 41
0.65
 51
15.0
 72
     1
 11
65.88616900756881
 21
112.0692822409614
 31
0.0
100
AcDbText
 73
     2
  0
TEXT
  5
C7B11
330
C6443
100
AcDbEntity
  8
BEM1
 62
     3
100
AcDbText
 10
62.62827401765306
 20
117.0044311438048
 30
0.0
 40
3.5
  1
6.35
 41
0.7
 51
15.0
 72
     1
 11
66.30327401765305
 21
118.7544311438048
 31
0.0
100
AcDbText
 73
     2
  0
SOLID
  5
C7B12
330
C6443
100
AcDbEntity
  8
BEM1
100
AcDbTrace
 10
69.25327401765298
 20
114.6932740734114
 30
0.0
 11
69.25327401765298
 21
115.8599407400781
 31
0.0
 12
72.75327401765299
 22
115.2766074067448
 32
0.0
 13
72.75327401765299
 23
115.2766074067448
 33
0.0
  0
TEXT
  5
C7B13
330
C6443
100
AcDbEntity
  8
035
100
AcDbText
 10
122.7339635068326
 20
137.2059003935198
 30
0.0
 40
3.5
  1
Frontplattenausschnitt (Rückseite)
  7
ARIAL
100
AcDbText
  0
TEXT
  5
C7B14
330
C6443
100
AcDbEntity
  8
035
100
AcDbText
 10
122.7339635068326
 20
130.2059003935198
 30
0.0
 40
3.0
  1
Panel cut out (rear side)
  7
ARIAL
100
AcDbText
  0
LINE
  5
C7B15
330
C6443
100
AcDbEntity
  8
035
  6
PUNKT
100
AcDbLine
 10
83.85327401765312
 20
63.15242708083156
 30
0.0
 11
83.85327401765312
 21
103.1524270808315
 31
0.0
  0
TEXT
  5
C7B16
330
C6443
100
AcDbEntity
  8
BEM1
 62
     3
100
AcDbText
 10
102.1982240126949
 20
78.86492708083157
 30
0.0
 40
3.5
  1
16.50
 50
90.0
 41
0.7
 51
15.0
 72
     1
 11
100.4482240126949
 21
83.15242708083156
 31
0.0
100
AcDbText
 73
     2
  0
LINE
  5
C7B17
330
C6443
100
AcDbEntity
  8
BEM1
100
AcDbLine
 10
103.9482240126949
 20
95.95242708083151
 30
0.0
 11
103.9482240126949
 21
70.35242708083149
 31
0.0
  0
LWPOLYLINE
  5
C7B18
330
C6443
100
AcDbEntity
  8
035
  6
PUNKT
100
AcDbPolyline
 90
        4
 70
     0
 43
0.0
 10
83.85327401765312
 20
73.95242708083151
 10
89.45327401765302
 20
73.95242708083151
 10
89.45327401765325
 20
92.35242708083138
 10
83.85327401765312
 20
92.35242708083138
  0
TEXT
  5
C7B19
330
C6443
100
AcDbEntity
  8
BEM1
 62
     4
100
AcDbText
 10
108.7457688844573
 20
78.16842590426787
 30
0.0
 40
3.0
  1
[.650"]
 50
90.0
 41
0.65
 51
15.0
 72
     1
 11
107.2457688844573
 21
82.88092590426789
 31
0.0
100
AcDbText
 73
     2
  0
SOLID
  5
C7B1A
330
C6443
100
AcDbEntity
  8
BEM1
100
AcDbTrace
 10
103.3648906793615
 20
70.15242708083156
 30
0.0
 11
104.5315573460282
 21
70.15242708083156
 31
0.0
 12
103.9482240126949
 22
66.65242708083155
 32
0.0
 13
103.9482240126949
 23
66.65242708083155
 33
0.0
  0
SOLID
  5
C7B1B
330
C6443
100
AcDbEntity
  8
BEM1
100
AcDbTrace
 10
103.3648906793615
 20
96.15242708083156
 30
0.0
 11
104.5315573460282
 21
96.15242708083156
 31
0.0
 12
103.9482240126949
 22
99.65242708083156
 32
0.0
 13
103.9482240126949
 23
99.65242708083156
 33
0.0
  0
TEXT
  5
C7B1C
330
C6443
100
AcDbEntity
  8
BEM1
 62
     3
100
AcDbText
 10
84.23106337968262
 20
117.1251295426432
 30
0.0
 40
3.5
  1
6x %%c1.50
 41
0.7
 51
15.0
 11
84.23106337968262
 21
118.8751295426432
 31
0.0
100
AcDbText
 73
     2
  0
LINE
  5
C7B1D
330
C6443
100
AcDbEntity
  8
BEM1
100
AcDbLine
 10
83.31307131490234
 20
115.2766074067448
 30
0.0
 11
99.92968204521753
 21
115.2766074067448
 31
0.0
  0
TEXT
  5
C7B1E
330
C6443
100
AcDbEntity
  8
BEM1
 62
     4
100
AcDbText
 10
83.41078355907056
 20
110.6621387699098
 30
0.0
 40
3.0
  1
[6x .0590"]
 41
0.65
 51
15.0
 72
     1
 11
91.86078355907056
 21
112.1621387699098
 31
0.0
100
AcDbText
 73
     2
  0
LINE
  5
C7B1F
330
C6443
100
AcDbEntity
  8
BEM1
100
AcDbLine
 10
149.7783636830338
 20
88.77091489154258
 30
0.0
 11
149.7783636830338
 21
116.0666536779863
 31
0.0
  0
LINE
  5
C7B20
330
C6443
100
AcDbEntity
  8
BEM1
100
AcDbLine
 10
172.5783636830338
 20
90.60510649923822
 30
0.0
 11
172.5783636830338
 21
116.0666536779863
 31
0.0
  0
LINE
  5
C7B21
330
C6443
100
AcDbEntity
  8
MITTE
100
AcDbLine
 10
161.1783636830338
 20
96.29962708083144
 30
0.0
 11
161.1783636830338
 21
70.00522708083145
 31
0.0
  0
CIRCLE
  5
C7B22
330
C6443
100
AcDbEntity
  8
05
100
AcDbCircle
 10
161.1783636830338
 20
83.15242708083156
 30
0.0
 40
11.4
  0
LINE
  5
C7B23
330
C6443
100
AcDbEntity
  8
MITTE
100
AcDbLine
 10
147.7143636830337
 20
83.15242708083156
 30
0.0
 11
174.642363683034
 21
83.15242708083156
 31
0.0
  0
TEXT
  5
C7B24
330
C6443
100
AcDbEntity
  8
BEM1
 62
     4
100
AcDbText
 10
155.8280017509194
 20
110.6621387699098
 30
0.0
 40
3.0
  1
[.450"]
 41
0.65
 51
15.0
 72
     1
 11
160.5405017509194
 21
112.1621387699098
 31
0.0
100
AcDbText
 73
     2
  0
TEXT
  5
C7B25
330
C6443
100
AcDbEntity
  8
BEM1
 62
     3
100
AcDbText
 10
156.0741970163671
 20
117.0266074067448
 30
0.0
 40
3.5
  1
%%c11.40
 41
0.7
 51
15.0
 72
     1
 11
161.1783636830338
 21
118.7766074067448
 31
0.0
100
AcDbText
 73
     2
  0
LINE
  5
C7B26
330
C6443
100
AcDbEntity
  8
BEM1
100
AcDbLine
 10
149.7783636830338
 20
115.2766074067448
 30
0.0
 11
172.5783636830338
 21
115.2766074067448
 31
0.0
  0
SOLID
  5
C7B27
330
C6443
100
AcDbEntity
  8
BEM1
100
AcDbTrace
 10
153.2783636830338
 20
115.8599407400781
 30
0.0
 11
153.2783636830338
 21
114.6932740734114
 31
0.0
 12
149.7783636830338
 22
115.2766074067448
 32
0.0
 13
149.7783636830338
 23
115.2766074067448
 33
0.0
  0
SOLID
  5
C7B28
330
C6443
100
AcDbEntity
  8
BEM1
100
AcDbTrace
 10
169.0783636830338
 20
115.8599407400781
 30
0.0
 11
169.0783636830338
 21
114.6932740734114
 31
0.0
 12
172.5783636830338
 22
115.2766074067448
 32
0.0
 13
172.5783636830338
 23
115.2766074067448
 33
0.0
  0
LINE
  5
C7B29
330
C6443
100
AcDbEntity
  8
MITTE
100
AcDbLine
 10
103.1084653184475
 20
243.3180231809514
 30
0.0
 11
30.77501827881827
 21
243.3180231809514
 31
0.0
  0
LINE
  5
C7B2B
330
C6443
100
AcDbEntity
  8
BEM1
100
AcDbLine
 10
32.96314739752177
 20
278.8545367034532
 30
0.0
 11
96.96314739752189
 21
278.8545367034532
 31
0.0
  0
LWPOLYLINE
  5
C7B2C
330
C6443
100
AcDbEntity
  8
05
100
AcDbPolyline
 90
        2
 70
     0
 43
0.0
 10
83.81314739752179
 20
227.3180231809514
 10
73.71314739752188
 20
227.3180231809513
  0
LWPOLYLINE
  5
C7B2D
330
C6443
100
AcDbEntity
  8
05
100
AcDbPolyline
 90
        6
 70
     0
 43
0.0
 10
75.36314739752185
 20
243.3180231809514
 10
77.66314739752181
 20
243.3180231809514
 10
77.66314739752181
 20
257.9180231809514
 10
79.86314739752185
 20
257.9180231809514
 10
79.86314739752185
 20
243.3180231809514
 10
82.16314739752181
 20
243.3180231809513
  0
LINE
  5
C7B35
330
C6443
100
AcDbEntity
  8
MITTE
100
AcDbLine
 10
105.239895076468
 20
178.3856816271342
 30
0.0
 11
30.77501827881827
 21
178.3856816271342
 31
0.0
  0
TEXT
  5
C7B36
330
C6443
100
AcDbEntity
  8
BEM1
 62
     3
100
AcDbText
 10
21.71232448414742
 20
227.5680231809513
 30
0.0
 40
3.5
  1
3/8-32 UNEF-2A THD.
 50
90.0
 41
0.5
 51
15.0
 72
     1
 11
19.96232448414741
 21
243.3180231809513
 31
0.0
100
AcDbText
 73
     2
  0
LINE
  5
C7B37
330
C6443
100
AcDbEntity
  8
BEM1
100
AcDbLine
 10
23.56409605789088
 20
250.3180231809513
 30
0.0
 11
23.56409605789088
 21
232.8180231809513
 31
0.0
  0
LWPOLYLINE
  5
C7B38
330
C6443
100
AcDbEntity
  8
05
100
AcDbPolyline
 90
        5
 70
     0
 43
0.0
 10
49.96314739752176
 20
230.3180231809513
 10
49.96314739752176
 20
257.9180231809514
 10
54.46314739752176
 20
257.9180231809514
 10
54.46314739752176
 20
243.3180231809514
 10
56.76314739752183
 20
243.3180231809515
  0
LWPOLYLINE
  5
C7B39
330
C6443
100
AcDbEntity
  8
05
100
AcDbPolyline
 90
        3
 70
     0
 43
0.0
 10
38.25019196666733
 20
258.2180231809509
 42
0.2160186508206791
 10
38.25019196666733
 20
243.3180231809509
 42
0.2160186508206876
 10
38.25019196666699
 20
228.4180231809528
 42
0.2160186508206876
  0
LWPOLYLINE
  5
C7B3A
330
C6443
100
AcDbEntity
  8
05
100
AcDbPolyline
 90
        6
 70
     0
 43
0.0
 10
44.45019196666783
 20
228.4180231809513
 10
37.31543316731734
 20
228.4180231809512
 10
36.65019196666765
 20
229.0832643816009
 10
36.65019196666765
 20
257.552781980302
 10
37.31543316731711
 20
258.2180231809514
 10
44.4501919666676
 20
258.2180231809514
  0
LINE
  5
C7B3B
330
C6443
100
AcDbEntity
  8
05
100
AcDbLine
 10
46.05019196666762
 20
260.3180231809515
 30
0.0
 11
46.05019196666762
 21
226.3180231809514
 31
0.0
  0
LINE
  5
C7B3C
330
C6443
100
AcDbEntity
  8
05
100
AcDbLine
 10
75.36314739752185
 20
243.3180231809514
 30
0.0
 11
75.36314739752185
 21
227.3180231809514
 31
0.0
  0
LINE
  5
C7B3D
330
C6443
100
AcDbEntity
  8
05
100
AcDbLine
 10
69.46314739752188
 20
243.3180231809514
 30
0.0
 11
69.46314739752188
 21
227.3180231809514
 31
0.0
  0
LINE
  5
C7B3E
330
C6443
100
AcDbEntity
  8
05
100
AcDbLine
 10
62.66314739752181
 20
227.3180231809514
 30
0.0
 11
62.66314739752181
 21
243.3180231809514
 31
0.0
  0
LINE
  5
C7B3F
330
C6443
100
AcDbEntity
  8
05
100
AcDbLine
 10
56.76314739752183
 20
243.3180231809514
 30
0.0
 11
56.76314739752183
 21
227.3180231809514
 31
0.0
  0
LWPOLYLINE
  5
C7B40
330
C6443
100
AcDbEntity
  8
05
100
AcDbPolyline
 90
        8
 70
     1
 43
0.0
 10
47.66133678778749
 20
258.1776548791284
 10
47.66133678778749
 20
228.5776548791283
 10
47.86133678778742
 20
228.3776548791284
 10
49.06133678778747
 20
228.3776548791284
 10
49.26133678778739
 20
228.5776548791283
 10
49.26133678778739
 20
258.1776548791284
 10
49.06133678778747
 20
258.3776548791284
 10
47.86133678778753
 20
258.3776548791284
  0
LINE
  5
C7B41
330
C6443
100
AcDbEntity
  8
05
100
AcDbLine
 10
34.96314739752177
 20
232.8180231809514
 30
0.0
 11
34.96314739752177
 21
253.8180231809513
 31
0.0
  0
LWPOLYLINE
  5
C7B42
330
C6443
100
AcDbEntity
  8
05
100
AcDbPolyline
 90
        6
 70
     0
 43
0.0
 10
36.65019196666765
 20
232.8180231809513
 10
34.96314739752177
 20
232.8180231809513
 10
32.96314739752177
 20
234.8180231809513
 10
32.96314739752177
 20
251.8180231809513
 10
34.96314739752177
 20
253.8180231809513
 10
36.65019196666765
 20
253.8180231809513
  0
LINE
  5
C7B43
330
C6443
100
AcDbEntity
  8
05
100
AcDbLine
 10
44.4501919666676
 20
226.7180231809514
 30
0.0
 11
44.4501919666676
 21
259.9180231809514
 31
0.0
  0
LINE
  5
C7B44
330
C6443
100
AcDbEntity
  8
05
100
AcDbLine
 10
67.16314739752181
 20
198.3856816271343
 30
0.0
 11
67.16314739752181
 21
158.3856816271341
 31
0.0
  0
LINE
  5
C7B45
330
C6443
100
AcDbEntity
  8
05
100
AcDbLine
 10
64.96314739752176
 20
198.3856816271342
 30
0.0
 11
64.96314739752176
 21
158.385681627134
 31
0.0
  0
LINE
  5
C7B46
330
C6443
100
AcDbEntity
  8
05
100
AcDbLine
 10
54.46314739752176
 20
198.3856816271343
 30
0.0
 11
54.46314739752176
 21
158.3856816271341
 31
0.0
  0
LWPOLYLINE
  5
C7B47
330
C6443
100
AcDbEntity
  8
05
100
AcDbPolyline
 90
        3
 70
     0
 43
0.0
 10
44.4501919666676
 20
186.8856816271341
 10
38.25019196666756
 20
186.8856816271342
 42
-0.3946005785051942
 10
38.25019196666642
 20
194.9856816271337
  0
LWPOLYLINE
  5
C7B48
330
C6443
100
AcDbEntity
  8
05
100
AcDbPolyline
 90
        8
 70
     1
 43
0.0
 10
36.65019196666765
 20
163.3856816271341
 10
36.65019196666765
 20
193.3856816271343
 10
38.25019196666756
 20
194.9856816271342
 10
44.4501919666676
 20
194.9856816271342
 42
-0.1122733198412798
 10
46.05019196666762
 20
195.3856816271343
 10
46.05019196666762
 20
161.3856816271342
 42
-0.1122733198412799
 10
44.4501919666676
 20
161.7856816271341
 10
38.25019196666756
 20
161.7856816271341
  0
LINE
  5
C7B49
330
C6443
100
AcDbEntity
  8
05
100
AcDbLine
 10
44.4501919666676
 20
161.7856816271341
 30
0.0
 11
44.4501919666676
 21
194.9856816271342
 31
0.0
  0
LWPOLYLINE
  5
C7B4A
330
C6443
100
AcDbEntity
  8
05
100
AcDbPolyline
 90
        4
 70
     1
 43
0.0
 10
64.96314739752176
 20
195.3856816271342
 10
64.96314739752176
 20
161.3856816271341
 10
54.46314739752176
 20
161.3856816271341
 10
54.46314739752176
 20
195.3856816271343
  0
LINE
  5
C7B4B
330
C6443
100
AcDbEntity
  8
05
100
AcDbLine
 10
49.96314739752176
 20
158.3856816271342
 30
0.0
 11
49.96314739752176
 21
198.3856816271342
 31
0.0
  0
LWPOLYLINE
  5
C7B4C
330
C6443
100
AcDbEntity
  8
05
100
AcDbPolyline
 90
        3
 70
     0
 43
0.0
 10
44.4501919666676
 20
169.8856816271342
 10
38.25019196666756
 20
169.8856816271342
 42
0.3946005785051945
 10
38.25019196666756
 20
161.7856816271341
  0
LWPOLYLINE
  5
C7B4D
330
C6443
100
AcDbEntity
  8
05
100
AcDbPolyline
 90
        6
 70
     0
 43
0.0
 10
36.65019196666765
 20
167.8856816271341
 10
34.96314739752177
 20
167.8856816271341
 10
32.96314739752177
 20
169.8856816271341
 10
32.96314739752177
 20
186.8856816271341
 10
34.96314739752177
 20
188.8856816271341
 10
36.65019196666765
 20
188.8856816271341
  0
ARC
  5
C7B4E
330
C6443
100
AcDbEntity
  8
05
100
AcDbCircle
 10
60.0283169666676
 20
178.3856816271342
 30
0.0
 40
23.37812500000004
100
AcDbArc
 50
158.6793034109295
 51
201.3206965890705
  0
LINE
  5
C7B4F
330
C6443
100
AcDbEntity
  8
05
100
AcDbLine
 10
34.96314739752177
 20
167.8856816271342
 30
0.0
 11
34.96314739752177
 21
188.8856816271341
 31
0.0
  0
LINE
  5
C7B50
330
C6443
100
AcDbEntity
  8
025
100
AcDbLine
 10
32.96314739752177
 20
169.8856816271341
 30
0.0
 11
36.65019196666765
 21
169.8856816271341
 31
0.0
  0
LINE
  5
C7B51
330
C6443
100
AcDbEntity
  8
025
100
AcDbLine
 10
32.96314739752177
 20
186.8856816271341
 30
0.0
 11
36.65019196666765
 21
186.8856816271341
 31
0.0
  0
LWPOLYLINE
  5
C7B52
330
C6443
100
AcDbEntity
  8
05
100
AcDbPolyline
 90
        8
 70
     1
 43
0.0
 10
48.36314739752186
 20
193.2453133253112
 10
48.36314739752186
 20
163.6453133253111
 10
48.5631473975219
 20
163.4453133253112
 10
49.76314739752183
 20
163.4453133253112
 10
49.96314739752176
 20
163.6453133253111
 10
49.96314739752176
 20
193.2453133253111
 10
49.76314739752183
 20
193.4453133253112
 10
48.5631473975219
 20
193.4453133253112
  0
LINE
  5
C7B53
330
C6443
100
AcDbEntity
  8
025
100
AcDbLine
 10
63.95925160378874
 20
164.5297896806703
 30
0.0
 11
56.57574700262194
 21
164.5297896806703
 31
0.0
  0
LINE
  5
C7B54
330
C6443
100
AcDbEntity
  8
025
100
AcDbLine
 10
61.82606816225427
 20
171.5549341416972
 30
0.0
 11
55.43517976999703
 21
171.5549341416972
 31
0.0
  0
LWPOLYLINE
  5
C7B55
330
C6443
100
AcDbEntity
  8
035
100
AcDbPolyline
 90
        4
 70
     0
 43
0.0
 10
54.46314739752176
 20
161.3856816271341
 10
54.46314739752176
 20
160.0077039210536
 10
55.26314739752184
 20
160.0077039210536
 10
55.26314739752184
 20
161.3856816271341
  0
LINE
  5
C7B56
330
C6443
100
AcDbEntity
  8
05
100
AcDbLine
 10
56.76314739752183
 20
161.3856816271341
 30
0.0
 11
56.76314739752183
 21
158.3856816271341
 31
0.0
  0
LINE
  5
C7B57
330
C6443
100
AcDbEntity
  8
05
100
AcDbLine
 10
56.76314739752183
 20
158.3856816271341
 30
0.0
 11
49.96314739752176
 21
158.3856816271341
 31
0.0
  0
LINE
  5
C7B58
330
C6443
100
AcDbEntity
  8
05
100
AcDbLine
 10
48.36314739752186
 20
167.8856816271343
 30
0.0
 11
46.05019196666762
 21
167.8856816271341
 31
0.0
  0
LINE
  5
C7B59
330
C6443
100
AcDbEntity
  8
025
100
AcDbLine
 10
46.05019196666762
 20
169.8856816271341
 30
0.0
 11
48.36314739752186
 21
169.8856816271341
 31
0.0
  0
LINE
  5
C7B5A
330
C6443
100
AcDbEntity
  8
025
100
AcDbLine
 10
56.08799143930321
 20
164.5297896806703
 30
0.0
 11
55.21583958595022
 21
164.5297896806703
 31
0.0
  0
LWPOLYLINE
  5
C7B5C
330
C6443
100
AcDbEntity
  8
035
100
AcDbPolyline
 90
        4
 70
     0
 43
0.0
 10
64.16314739752181
 20
161.3856816271341
 10
64.16314739752181
 20
160.0077039210536
 10
64.96314739752176
 20
160.0077039210536
 10
64.96314739752176
 20
161.3856816271341
  0
LINE
  5
C7B5F
330
C6443
100
AcDbEntity
  8
05
100
AcDbLine
 10
62.66314739752181
 20
161.3856816271341
 30
0.0
 11
62.66314739752181
 21
158.3856816271341
 31
0.0
  0
LINE
  5
C7B63
330
C6443
100
AcDbEntity
  8
025
100
AcDbLine
 10
64.27992605291945
 20
171.5549341416972
 30
0.0
 11
62.56436724799584
 21
171.5549341416972
 31
0.0
  0
ARC
  5
C7B64
330
C6443
100
AcDbEntity
  8
035
100
AcDbCircle
 10
59.71314739752177
 20
188.215563308271
 30
0.0
 40
5.354941860465119
100
AcDbArc
 50
11.3617816359321
 51
168.6382183640678
  0
LWPOLYLINE
  5
C7B65
330
C6443
100
AcDbEntity
  8
025
100
AcDbPolyline
 90
        4
 70
     0
 43
0.0
 10
57.45200763143191
 20
172.7301337598083
 42
0.1957062860191981
 10
58.61377851368558
 20
175.090723726397
 10
58.61377851368558
 20
184.3540021038848
 42
0.1720024612105806
 10
57.44581146951566
 20
187.5581422396758
 42
0.1720024612105806
  0
LINE
  5
C7B66
330
C6443
100
AcDbEntity
  8
05
100
AcDbLine
 10
48.36314739752186
 20
188.8856816271342
 30
0.0
 11
46.05019196666762
 21
188.8856816271341
 31
0.0
  0
LINE
  5
C7B67
330
C6443
100
AcDbEntity
  8
025
100
AcDbLine
 10
46.05019196666762
 20
186.8856816271341
 30
0.0
 11
48.36314739752186
 21
186.8856816271342
 31
0.0
  0
LWPOLYLINE
  5
C7B6A
330
C6443
100
AcDbEntity
  8
025
100
AcDbPolyline
 90
        4
 70
     0
 43
0.0
 10
61.98819176023334
 20
187.3578824845741
 42
0.184217657103692
 10
60.81251628135817
 20
184.8880261242596
 10
60.81251628135817
 20
175.090723726397
 42
0.1918553960062915
 10
61.93583263383482
 20
172.7648492604241
  0
LINE
  5
C7B6B
330
C6443
100
AcDbEntity
  8
BEM1
100
AcDbLine
 10
33.62506016535724
 20
232.8180231809513
 30
0.0
 11
22.74335145394752
 21
232.8180231809513
 31
0.0
  0
SOLID
  5
C7B6C
330
C6443
100
AcDbEntity
  8
BEM1
100
AcDbTrace
 10
22.98076272455762
 20
236.3180231809513
 30
0.0
 11
24.14742939122425
 21
236.3180231809513
 31
0.0
 12
23.56409605789099
 22
232.8180231809513
 32
0.0
 13
23.56409605789099
 23
232.8180231809513
 33
0.0
  0
LINE
  5
C7B6D
330
C6443
100
AcDbEntity
  8
025
100
AcDbLine
 10
32.96314739752177
 20
234.8180231809513
 30
0.0
 11
36.65019196666765
 21
234.8180231809513
 31
0.0
  0
LINE
  5
C7B6E
330
C6443
100
AcDbEntity
  8
05
100
AcDbLine
 10
56.76314739752183
 20
196.9856816271343
 30
0.0
 11
62.66314739752181
 21
196.9856816271343
 31
0.0
  0
LINE
  5
C7B6F
330
C6443
100
AcDbEntity
  8
05
100
AcDbLine
 10
56.76314739752183
 20
198.3856816271343
 30
0.0
 11
49.96314739752176
 21
198.3856816271343
 31
0.0
  0
LINE
  5
C7B70
330
C6443
100
AcDbEntity
  8
05
100
AcDbLine
 10
56.76314739752183
 20
196.9856816271343
 30
0.0
 11
56.76314739752183
 21
198.3856816271343
 31
0.0
  0
LINE
  5
C7B72
330
C6443
100
AcDbEntity
  8
05
100
AcDbLine
 10
62.66314739752181
 20
196.9856816271343
 30
0.0
 11
62.66314739752181
 21
198.3856816271343
 31
0.0
  0
ARC
  5
C7B76
330
C6443
100
AcDbEntity
  8
035
100
AcDbCircle
 10
59.71314739752187
 20
220.6180231809515
 30
0.0
 40
1.299999999999997
100
AcDbArc
 50
180.0
 51
0.0
  0
LINE
  5
C7B77
330
C6443
100
AcDbEntity
  8
025
 62
     5
100
AcDbLine
 10
60.30426100068087
 20
222.0197179542708
 30
0.0
 11
59.07869136564966
 21
222.0197179542708
 31
0.0
  0
LINE
  5
C7B78
330
C6443
100
AcDbEntity
  8
025
 62
     5
100
AcDbLine
 10
60.73698428901526
 20
226.1163284076321
 30
0.0
 11
59.64905455324822
 21
226.1163284076321
 31
0.0
  0
CIRCLE
  5
C7B79
330
C6443
100
AcDbEntity
  8
035
100
AcDbCircle
 10
59.71314739752187
 20
237.3180231809513
 30
0.0
 40
1.0
  0
LWPOLYLINE
  5
C7B7A
330
C6443
100
AcDbEntity
  8
05
100
AcDbPolyline
 90
        4
 70
     0
 43
0.0
 10
58.41314739752181
 20
227.3180231809513
 10
52.56314739752179
 20
227.3180231809514
 10
52.56314739752179
 20
230.3180231809514
 10
49.96314739752176
 20
230.3180231809514
  0
ARC
  5
C7B7B
330
C6443
100
AcDbEntity
  8
05
100
AcDbCircle
 10
46.12964819281967
 20
230.0358480855598
 30
0.0
 40
3.718673864861121
100
AcDbArc
 50
243.1518347046258
 51
268.7756783595225
  0
LINE
  5
C7B7C
330
C6443
100
AcDbEntity
  8
035
100
AcDbLine
 10
58.41314739752181
 20
228.3180231809514
 30
0.0
 11
58.41314739752181
 21
220.5580231809514
 31
0.0
  0
LINE
  5
C7B7D
330
C6443
100
AcDbEntity
  8
025
 62
     5
100
AcDbLine
 10
58.58134239962897
 20
222.0197179542708
 30
0.0
 11
58.74668511108677
 21
222.0197179542708
 31
0.0
  0
LINE
  5
C7B7E
330
C6443
100
AcDbEntity
  8
035
100
AcDbLine
 10
56.76314739752183
 20
228.3180231809514
 30
0.0
 11
58.41314739752181
 21
228.3180231809514
 31
0.0
  0
LINE
  5
C7B7F
330
C6443
100
AcDbEntity
  8
025
 62
     5
100
AcDbLine
 10
59.23085292706662
 20
226.1163284076321
 30
0.0
 11
58.65649192628712
 21
226.1163284076321
 31
0.0
  0
LINE
  5
C7B80
330
C6443
100
AcDbEntity
  8
05
100
AcDbLine
 10
47.66133678778749
 20
232.8180231809515
 30
0.0
 11
46.05019196666762
 21
232.8180231809513
 31
0.0
  0
LINE
  5
C7B81
330
C6443
100
AcDbEntity
  8
025
100
AcDbLine
 10
46.05019196666773
 20
234.8180231809514
 30
0.0
 11
47.66133678778749
 21
234.8180231809514
 31
0.0
  0
LINE
  5
C7B82
330
C6443
100
AcDbEntity
  8
025
100
AcDbLine
 10
49.26133678778739
 20
234.8180231809513
 30
0.0
 11
49.96314739752176
 21
234.8180231809513
 31
0.0
  0
LINE
  5
C7B83
330
C6443
100
AcDbEntity
  8
05
100
AcDbLine
 10
49.96314739752176
 20
232.8180231809517
 30
0.0
 11
49.26133678778739
 21
232.8180231809516
 31
0.0
  0
LWPOLYLINE
  5
C7B85
330
C6443
100
AcDbEntity
  8
035
100
AcDbPolyline
 90
        4
 70
     0
 43
0.0
 10
61.01314739752183
 20
220.5580231809514
 10
61.01314739752183
 20
228.3180231809514
 10
61.01314739752183
 20
228.3180231809514
 10
62.66314739752181
 20
228.3180231809514
  0
LINE
  5
C7B86
330
C6443
100
AcDbEntity
  8
025
 62
     5
100
AcDbLine
 10
60.82143092756234
 20
222.0197179542708
 30
0.0
 11
60.98940039071806
 21
222.0197179542708
 31
0.0
  0
CIRCLE
  5
C7B90
330
C6443
100
AcDbEntity
  8
035
100
AcDbCircle
 10
72.41314739752181
 20
237.3180231809513
 30
0.0
 40
1.0
  0
TEXT
  5
C7B91
330
C6443
100
AcDbEntity
  8
BEM1
 62
     4
100
AcDbText
 10
42.44580803430813
 20
271.8545381695999
 30
0.0
 40
3.0
  1
[.334"]
 41
0.7
 51
15.0
 72
     1
 11
47.69580803430812
 21
273.3545381695999
 31
0.0
100
AcDbText
 73
     2
  0
LINE
  5
C7B92
330
C6443
100
AcDbEntity
  8
BEM1
100
AcDbLine
 10
46.46314739752177
 20
269.8545367034532
 30
0.0
 11
36.46314739752177
 21
269.8545367034532
 31
0.0
  0
LINE
  5
C7B93
330
C6443
100
AcDbEntity
  8
05
100
AcDbLine
 10
44.4501919666676
 20
243.3180231809514
 30
0.0
 11
38.25019196666756
 21
243.3180231809514
 31
0.0
  0
LINE
  5
C7B94
330
C6443
100
AcDbEntity
  8
BEM1
100
AcDbLine
 10
32.96314739752177
 20
252.8180231809513
 30
0.0
 11
32.96314739752177
 21
279.9857108613482
 31
0.0
  0
LINE
  5
C7B95
330
C6443
100
AcDbEntity
  8
BEM1
100
AcDbLine
 10
31.92802588523409
 20
253.8180231809513
 30
0.0
 11
22.74335145394752
 21
253.8180231809513
 31
0.0
  0
SOLID
  5
C7B96
330
C6443
100
AcDbEntity
  8
BEM1
100
AcDbTrace
 10
22.98076272455751
 20
250.3180231809513
 30
0.0
 11
24.14742939122425
 21
250.3180231809513
 31
0.0
 12
23.56409605789088
 22
253.8180231809513
 32
0.0
 13
23.56409605789088
 23
253.8180231809513
 33
0.0
  0
LINE
  5
C7B97
330
C6443
100
AcDbEntity
  8
025
100
AcDbLine
 10
32.96314739752177
 20
251.8180231809513
 30
0.0
 11
36.65019196666765
 21
251.8180231809513
 31
0.0
  0
TEXT
  5
C7B98
330
C6443
100
AcDbEntity
  8
BEM1
 62
     3
100
AcDbText
 10
33.64833942977586
 20
271.6989272304608
 30
0.0
 40
3.5
  1
8.50
 41
0.7
 51
15.0
 72
     1
 11
37.11917276310919
 21
273.4489272304608
 31
0.0
100
AcDbText
 73
     2
  0
SOLID
  5
C7B99
330
C6443
100
AcDbEntity
  8
BEM1
100
AcDbTrace
 10
36.46314739752177
 20
270.4378700367865
 30
0.0
 11
36.46314739752177
 21
269.2712033701198
 31
0.0
 12
32.96314739752177
 22
269.8545367034532
 32
0.0
 13
32.96314739752177
 23
269.8545367034532
 33
0.0
  0
SOLID
  5
C7B9A
330
C6443
100
AcDbEntity
  8
BEM1
100
AcDbTrace
 10
36.46314739752177
 20
279.4378700367865
 30
0.0
 11
36.46314739752177
 21
278.2712033701198
 31
0.0
 12
32.96314739752177
 22
278.8545367034532
 32
0.0
 13
32.96314739752177
 23
278.8545367034532
 33
0.0
  0
LINE
  5
C7B9B
330
C6443
100
AcDbEntity
  8
BEM1
100
AcDbLine
 10
49.96314739752176
 20
258.9180231809514
 30
0.0
 11
49.96314739752176
 21
269.7944401494201
 31
0.0
  0
LINE
  5
C7B9C
330
C6443
100
AcDbEntity
  8
035
100
AcDbLine
 10
54.46314739752176
 20
255.7180231809492
 30
0.0
 11
64.96314739752176
 21
255.7180231809492
 31
0.0
  0
LINE
  5
C7B9D
330
C6443
100
AcDbEntity
  8
05
100
AcDbLine
 10
54.46314739752176
 20
243.3180231809514
 30
0.0
 11
49.96314739752176
 21
243.3180231809514
 31
0.0
  0
LINE
  5
C7B9E
330
C6443
100
AcDbEntity
  8
025
100
AcDbLine
 10
46.05019196666762
 20
251.8180231809513
 30
0.0
 11
47.66133678778749
 21
251.8180231809514
 31
0.0
  0
LINE
  5
C7B9F
330
C6443
100
AcDbEntity
  8
025
100
AcDbLine
 10
49.26133678778739
 20
251.8180231809515
 30
0.0
 11
49.96314739752176
 21
251.8180231809515
 31
0.0
  0
LINE
  5
C7BA0
330
C6443
100
AcDbEntity
  8
035
100
AcDbLine
 10
55.26314739752184
 20
243.3180231809515
 30
0.0
 11
55.26314739752184
 21
248.0194363558126
 31
0.0
  0
LINE
  5
C7BA1
330
C6443
100
AcDbEntity
  8
035
100
AcDbLine
 10
54.46314739752176
 20
248.0194363558126
 30
0.0
 11
55.26314739752184
 21
248.0194363558126
 31
0.0
  0
LINE
  5
C7BA2
330
C6443
100
AcDbEntity
  8
05
100
AcDbLine
 10
47.66133678778749
 20
253.8180231809514
 30
0.0
 11
46.05019196666762
 21
253.8180231809513
 31
0.0
  0
LINE
  5
C7BA3
330
C6443
100
AcDbEntity
  8
05
100
AcDbLine
 10
49.96314739752176
 20
253.8180231809515
 30
0.0
 11
49.26133678778739
 21
253.8180231809515
 31
0.0
  0
ARC
  5
C7BA4
330
C6443
100
AcDbEntity
  8
05
100
AcDbCircle
 10
46.1296481928199
 20
256.600198276343
 30
0.0
 40
3.718673864861188
100
AcDbArc
 50
91.2243216404814
 51
116.8481652953781
  0
LWPOLYLINE
  5
C7BA5
330
C6443
100
AcDbEntity
  8
05
100
AcDbPolyline
 90
        6
 70
     0
 43
0.0
 10
62.66314739752181
 20
243.3180231809514
 10
64.96314739752176
 20
243.3180231809514
 10
64.96314739752176
 20
257.9180231809514
 10
67.16314739752181
 20
257.9180231809514
 10
67.16314739752181
 20
243.3180231809514
 10
69.46314739752188
 20
243.3180231809514
  0
LINE
  5
C7BA6
330
C6443
100
AcDbEntity
  8
035
100
AcDbLine
 10
67.16314739752181
 20
248.0194363558126
 30
0.0
 11
67.96314739752188
 21
248.0194363558126
 31
0.0
  0
LINE
  5
C7BA7
330
C6443
100
AcDbEntity
  8
035
100
AcDbLine
 10
64.16314739752181
 20
243.3180231809515
 30
0.0
 11
64.16314739752181
 21
248.0194363558126
 31
0.0
  0
LINE
  5
C7BA8
330
C6443
100
AcDbEntity
  8
05
100
AcDbLine
 10
64.96314739752176
 20
243.3180231809514
 30
0.0
 11
67.16314739752181
 21
243.3180231809514
 31
0.0
  0
LINE
  5
C7BA9
330
C6443
100
AcDbEntity
  8
035
100
AcDbLine
 10
64.16314739752181
 20
248.0194363558126
 30
0.0
 11
64.96314739752176
 21
248.0194363558126
 31
0.0
  0
LINE
  5
C7BAA
330
C6443
100
AcDbEntity
  8
035
100
AcDbLine
 10
67.96314739752188
 20
243.3180231809515
 30
0.0
 11
67.96314739752188
 21
248.0194363558126
 31
0.0
  0
SOLID
  5
C7BAC
330
C6443
100
AcDbEntity
  8
BEM1
100
AcDbTrace
 10
46.46314739752177
 20
270.4378700367865
 30
0.0
 11
46.46314739752177
 21
269.2712033701198
 31
0.0
 12
49.96314739752176
 22
269.8545367034532
 32
0.0
 13
49.96314739752176
 23
269.8545367034532
 33
0.0
  0
LINE
  5
C7BAD
330
C6443
100
AcDbEntity
  8
BEM1
100
AcDbLine
 10
193.4049972991324
 20
256.8180231809515
 30
0.0
 11
193.4049972991324
 21
230.8180231809514
 31
0.0
  0
TEXT
  5
C7BAE
330
C6443
100
AcDbEntity
  8
BEM1
 62
     3
100
AcDbText
 10
191.6549972991324
 20
233.5029989425517
 30
0.0
 40
3.5
  1
16.50
 50
90.0
 41
0.7
 51
15.0
 72
     1
 11
189.9049972991324
 21
237.7904989425517
 31
0.0
100
AcDbText
 73
     2
  0
TEXT
  5
C7BAF
330
C6443
100
AcDbEntity
  8
BEM1
 62
     3
100
AcDbText
 10
112.1760196339675
 20
232.15054601928
 30
0.0
 40
3.5
  1
15.50
 50
90.0
 41
0.7
 51
15.0
 72
     1
 11
110.4260196339675
 21
236.43804601928
 31
0.0
100
AcDbText
 73
     2
  0
LINE
  5
C7BB0
330
C6443
100
AcDbEntity
  8
BEM1
100
AcDbLine
 10
113.9260196339675
 20
256.8180231809515
 30
0.0
 11
113.9260196339675
 21
230.8180231809514
 31
0.0
  0
SOLID
  5
C7BB1
330
C6443
100
AcDbEntity
  8
BEM1
100
AcDbTrace
 10
129.2622336382376
 20
239.8180231809514
 30
0.0
 11
130.4289003049042
 21
239.8180231809514
 31
0.0
 12
129.8455669715708
 22
243.3180231809514
 32
0.0
 13
129.8455669715708
 23
243.3180231809514
 33
0.0
  0
CIRCLE
  5
C7BB2
330
C6443
100
AcDbEntity
  8
05
100
AcDbCircle
 10
160.4256772084297
 20
243.3180231809514
 30
0.0
 40
10.49999999999988
  0
LINE
  5
C7BB3
330
C6443
100
AcDbEntity
  8
MITTE
100
AcDbLine
 10
160.4256772084297
 20
261.5780231809515
 30
0.0
 11
160.4256772084297
 21
225.0580231809513
 31
0.0
  0
LWPOLYLINE
  5
C7BB4
330
C6443
100
AcDbEntity
  8
05
100
AcDbPolyline
 90
        4
 70
     0
 43
0.0
 10
166.170239854968
 20
227.3180231809514
 10
180.4256772084297
 20
227.3180231809514
 10
180.4256772084297
 20
243.3180231809514
 10
177.0672789236846
 20
246.7903555888337
  0
LWPOLYLINE
  5
C7BB5
330
C6443
100
AcDbEntity
  8
05
100
AcDbPolyline
 90
        4
 70
     0
 43
0.0
 10
143.7840754931749
 20
246.7903555888338
 10
140.4256772084296
 20
243.3180231809514
 10
140.4256772084296
 20
227.3180231809514
 10
154.6811145618912
 20
227.3180231809514
  0
LWPOLYLINE
  5
C7BB6
330
C6443
100
AcDbEntity
  8
05
100
AcDbPolyline
 90
        4
 70
     0
 43
0.0
 10
94.86314739752186
 20
234.1180231809515
 10
100.4631473975219
 20
234.1180231809515
 10
100.4631473975219
 20
252.5180231809514
 10
94.86314739752186
 20
252.5180231809514
  0
CIRCLE
  5
C7BB7
330
C6443
100
AcDbEntity
  8
035
100
AcDbCircle
 10
160.4256772084297
 20
243.3180231809514
 30
0.0
 40
14.37602170282172
  0
LWPOLYLINE
  5
C7BB8
330
C6443
100
AcDbEntity
  8
05
100
AcDbPolyline
 90
        6
 70
     1
 43
0.0
 10
160.4256772084297
 20
259.9180231809514
 10
146.0496555056081
 20
251.6180231809514
 10
146.0496555056081
 20
235.0180231809513
 10
160.4256772084297
 20
226.7180231809514
 10
174.8016989112514
 20
235.0180231809513
 10
174.8016989112514
 20
251.6180231809514
  0
CIRCLE
  5
C7BB9
330
C6443
100
AcDbEntity
  8
05
100
AcDbCircle
 10
160.4256772084297
 20
243.3180231809514
 30
0.0
 40
17.00000000000011
  0
ARC
  5
C7BBA
330
C6443
100
AcDbEntity
  8
025
100
AcDbCircle
 10
160.4256772084297
 20
243.3180231809514
 30
0.0
 40
8.499999999999886
100
AcDbArc
 50
172.8410915901017
 51
74.77421008721686
  0
CIRCLE
  5
C7BBB
330
C6443
100
AcDbEntity
  8
05
100
AcDbCircle
 10
160.4256772084297
 20
243.3180231809514
 30
0.0
 40
6.4
  0
LWPOLYLINE
  5
C7BBC
330
C6443
100
AcDbEntity
  8
05
100
AcDbPolyline
 90
        6
 70
     0
 43
0.0
 10
88.0631473975219
 20
243.3180231809514
 10
90.36314739752185
 20
243.3180231809514
 10
90.36314739752185
 20
257.9180231809514
 10
94.86314739752186
 20
257.9180231809514
 10
94.86314739752186
 20
227.3180231809514
 10
86.4131473975218
 20
227.3180231809514
  0
LINE
  5
C7BBD
330
C6443
100
AcDbEntity
  8
05
100
AcDbLine
 10
88.0631473975219
 20
227.3180231809514
 30
0.0
 11
88.0631473975219
 21
243.3180231809514
 31
0.0
  0
LINE
  5
C7BBE
330
C6443
100
AcDbEntity
  8
05
100
AcDbLine
 10
82.16314739752181
 20
243.3180231809514
 30
0.0
 11
82.16314739752181
 21
227.3180231809514
 31
0.0
  0
LINE
  5
C7BBF
330
C6443
100
AcDbEntity
  8
05
100
AcDbLine
 10
140.4256772084296
 20
230.3180231809514
 30
0.0
 11
149.4712260583262
 21
230.3180231809514
 31
0.0
  0
LINE
  5
C7BC0
330
C6443
100
AcDbEntity
  8
05
100
AcDbLine
 10
90.36314739752185
 20
198.3856816271342
 30
0.0
 11
90.36314739752185
 21
158.385681627134
 31
0.0
  0
LINE
  5
C7BC1
330
C6443
100
AcDbEntity
  8
05
100
AcDbLine
 10
79.86314739752185
 20
198.3856816271343
 30
0.0
 11
79.86314739752185
 21
158.3856816271341
 31
0.0
  0
LINE
  5
C7BC2
330
C6443
100
AcDbEntity
  8
05
100
AcDbLine
 10
77.66314739752181
 20
198.3856816271342
 30
0.0
 11
77.66314739752181
 21
158.385681627134
 31
0.0
  0
LWPOLYLINE
  5
C7BC3
330
C6443
100
AcDbEntity
  8
05
100
AcDbPolyline
 90
        4
 70
     1
 43
0.0
 10
90.36314739752185
 20
195.3856816271342
 10
90.36314739752185
 20
161.3856816271341
 10
79.86314739752185
 20
161.3856816271341
 10
79.86314739752185
 20
195.3856816271343
  0
LINE
  5
C7BC4
330
C6443
100
AcDbEntity
  8
05
100
AcDbLine
 10
94.86314739752186
 20
158.3856816271342
 30
0.0
 11
94.86314739752186
 21
198.3856816271342
 31
0.0
  0
LWPOLYLINE
  5
C7BC5
330
C6443
100
AcDbEntity
  8
05
100
AcDbPolyline
 90
        4
 70
     0
 43
0.0
 10
94.86314739752186
 20
169.1856816271342
 10
100.4631473975219
 20
169.1856816271342
 10
100.4631473975219
 20
187.5856816271341
 10
94.86314739752186
 20
187.5856816271341
  0
LINE
  5
C7BC6
330
C6443
100
AcDbEntity
  8
05
100
AcDbLine
 10
94.86314739752186
 20
158.3856816271341
 30
0.0
 11
88.0631473975219
 21
158.3856816271341
 31
0.0
  0
LWPOLYLINE
  5
C7BC7
330
C6443
100
AcDbEntity
  8
035
100
AcDbPolyline
 90
        4
 70
     0
 43
0.0
 10
89.5631473975219
 20
161.3856816271341
 10
89.5631473975219
 20
160.0077039210536
 10
90.36314739752185
 20
160.0077039210536
 10
90.36314739752185
 20
161.3856816271341
  0
LWPOLYLINE
  5
C7BC8
330
C6443
100
AcDbEntity
  8
035
100
AcDbPolyline
 90
        4
 70
     0
 43
0.0
 10
79.86314739752185
 20
161.3856816271341
 10
79.86314739752185
 20
160.0077039210536
 10
80.66314739752181
 20
160.0077039210536
 10
80.66314739752181
 20
161.3856816271341
  0
LINE
  5
C7BCA
330
C6443
100
AcDbEntity
  8
05
100
AcDbLine
 10
88.0631473975219
 20
161.3856816271341
 30
0.0
 11
88.0631473975219
 21
158.3856816271341
 31
0.0
  0
LINE
  5
C7BCB
330
C6443
100
AcDbEntity
  8
05
100
AcDbLine
 10
82.16314739752181
 20
161.3856816271341
 30
0.0
 11
82.16314739752181
 21
158.3856816271341
 31
0.0
  0
LINE
  5
C7BCC
330
C6443
100
AcDbEntity
  8
025
100
AcDbLine
 10
89.34469527509225
 20
164.5297896806703
 30
0.0
 11
82.66307753845707
 21
164.5297896806703
 31
0.0
  0
LINE
  5
C7BCD
330
C6443
100
AcDbEntity
  8
025
100
AcDbLine
 10
86.75586433660885
 20
171.5549341416972
 30
0.0
 11
81.0399607513176
 21
171.5549341416972
 31
0.0
  0
LINE
  5
C7BCE
330
C6443
100
AcDbEntity
  8
025
100
AcDbLine
 10
81.48799143930331
 20
164.5297896806703
 30
0.0
 11
80.44851244658856
 21
164.5297896806703
 31
0.0
  0
LINE
  5
C7BCF
330
C6443
100
AcDbEntity
  8
025
100
AcDbLine
 10
89.67992605291954
 20
171.5549341416972
 30
0.0
 11
87.70582703411594
 21
171.5549341416972
 31
0.0
  0
LWPOLYLINE
  5
C7BD0
330
C6443
100
AcDbEntity
  8
025
100
AcDbPolyline
 90
        4
 70
     0
 43
0.0
 10
87.38819176023332
 20
187.3578824845741
 42
0.184217657103692
 10
86.21251628135814
 20
184.8880261242596
 10
86.21251628135814
 20
175.090723726397
 42
0.1918553960062915
 10
87.33583263383469
 20
172.7648492604241
  0
LWPOLYLINE
  5
C7BD1
330
C6443
100
AcDbEntity
  8
025
100
AcDbPolyline
 90
        4
 70
     0
 43
0.0
 10
82.85200763143199
 20
172.7301337598083
 42
0.1957062860191981
 10
84.01377851368556
 20
175.090723726397
 10
84.01377851368556
 20
184.3540021038848
 42
0.1720024612105806
 10
82.84581146951575
 20
187.5581422396758
 42
0.1720024612105806
  0
ARC
  5
C7BD2
330
C6443
100
AcDbEntity
  8
035
100
AcDbCircle
 10
85.11314739752185
 20
188.215563308271
 30
0.0
 40
5.354941860465119
100
AcDbArc
 50
11.3617816359321
 51
168.6382183640678
  0
LINE
  5
C7BD3
330
C6443
100
AcDbEntity
  8
BEM1
100
AcDbLine
 10
96.03163450379099
 20
227.3180231809514
 30
0.0
 11
114.7852161231641
 21
227.3180231809514
 31
0.0
  0
LINE
  5
C7BD4
330
C6443
100
AcDbEntity
  8
05
100
AcDbLine
 10
94.86314739752186
 20
198.3856816271343
 30
0.0
 11
88.0631473975219
 21
198.3856816271343
 31
0.0
  0
LINE
  5
C7BD5
330
C6443
100
AcDbEntity
  8
05
100
AcDbLine
 10
82.16314739752181
 20
196.9856816271343
 30
0.0
 11
88.0631473975219
 21
196.9856816271343
 31
0.0
  0
LINE
  5
C7BD6
330
C6443
100
AcDbEntity
  8
05
100
AcDbLine
 10
82.16314739752181
 20
196.9856816271343
 30
0.0
 11
82.16314739752181
 21
198.3856816271343
 31
0.0
  0
LINE
  5
C7BD7
330
C6443
100
AcDbEntity
  8
05
100
AcDbLine
 10
88.0631473975219
 20
196.9856816271343
 30
0.0
 11
88.0631473975219
 21
198.3856816271343
 31
0.0
  0
ARC
  5
C7BD8
330
C6443
100
AcDbEntity
  8
035
100
AcDbCircle
 10
85.11314739752185
 20
220.6180231809515
 30
0.0
 40
1.299999999999997
100
AcDbArc
 50
180.0
 51
0.0
  0
LINE
  5
C7BD9
330
C6443
100
AcDbEntity
  8
035
100
AcDbLine
 10
83.81314739752179
 20
228.3180231809514
 30
0.0
 11
83.81314739752179
 21
220.5580231809514
 31
0.0
  0
LINE
  5
C7BDA
330
C6443
100
AcDbEntity
  8
035
100
AcDbLine
 10
82.16314739752181
 20
228.3180231809514
 30
0.0
 11
83.81314739752179
 21
228.3180231809514
 31
0.0
  0
LWPOLYLINE
  5
C7BDB
330
C6443
100
AcDbEntity
  8
035
100
AcDbPolyline
 90
        4
 70
     0
 43
0.0
 10
86.4131473975218
 20
220.5580231809514
 10
86.4131473975218
 20
228.3180231809514
 10
86.4131473975218
 20
228.3180231809514
 10
88.06314739752179
 20
228.3180231809514
  0
LINE
  5
C7BDC
330
C6443
100
AcDbEntity
  8
025
 62
     5
100
AcDbLine
 10
86.22143092756232
 20
222.0197179542708
 30
0.0
 11
86.38940039071803
 21
222.0197179542708
 31
0.0
  0
LINE
  5
C7BDD
330
C6443
100
AcDbEntity
  8
025
 62
     5
100
AcDbLine
 10
83.98134239962883
 20
222.0197179542708
 30
0.0
 11
84.14668511108676
 21
222.0197179542708
 31
0.0
  0
LINE
  5
C7BDE
330
C6443
100
AcDbEntity
  8
025
 62
     5
100
AcDbLine
 10
85.70426100068084
 20
222.0197179542708
 30
0.0
 11
84.47869136564964
 21
222.0197179542708
 31
0.0
  0
LINE
  5
C7BDF
330
C6443
100
AcDbEntity
  8
025
 62
     5
100
AcDbLine
 10
86.13698428901523
 20
226.1163284076321
 30
0.0
 11
85.0490545532482
 21
226.1163284076321
 31
0.0
  0
LINE
  5
C7BE0
330
C6443
100
AcDbEntity
  8
025
 62
     5
100
AcDbLine
 10
84.6308529270666
 20
226.1163284076321
 30
0.0
 11
84.05649192628709
 21
226.1163284076321
 31
0.0
  0
CIRCLE
  5
C7BE1
330
C6443
100
AcDbEntity
  8
035
100
AcDbCircle
 10
85.11314739752185
 20
237.3180231809513
 30
0.0
 40
1.0
  0
TEXT
  5
C7BE2
330
C6443
100
AcDbEntity
  8
BEM1
 62
     3
100
AcDbText
 10
128.0955669715708
 20
232.0513565142848
 30
0.0
 40
3.5
  1
8.00
 50
90.0
 41
0.7
 51
15.0
 72
     1
 11
126.3455669715708
 21
235.3180231809514
 31
0.0
100
AcDbText
 73
     2
  0
SOLID
  5
C7BE3
330
C6443
100
AcDbEntity
  8
BEM1
100
AcDbTrace
 10
113.3426863006341
 20
230.8180231809514
 30
0.0
 11
114.5093529673007
 21
230.8180231809514
 31
0.0
 12
113.9260196339675
 22
227.3180231809514
 32
0.0
 13
113.9260196339675
 23
227.3180231809514
 33
0.0
  0
SOLID
  5
C7BE4
330
C6443
100
AcDbEntity
  8
BEM1
100
AcDbTrace
 10
129.2622336382376
 20
230.8180231809514
 30
0.0
 11
130.4289003049042
 21
230.8180231809514
 31
0.0
 12
129.8455669715708
 22
227.3180231809514
 32
0.0
 13
129.8455669715708
 23
227.3180231809514
 33
0.0
  0
LINE
  5
C7BE5
330
C6443
100
AcDbEntity
  8
BEM1
100
AcDbLine
 10
139.4256772084296
 20
227.3180231809514
 30
0.0
 11
129.2999707415245
 21
227.3180231809514
 31
0.0
  0
TEXT
  5
C7BE6
330
C6443
100
AcDbEntity
  8
BEM1
 62
     4
100
AcDbText
 10
134.5580323469369
 20
230.0880565944845
 30
0.0
 40
3.0
  1
[.314"]
 50
90.0
 41
0.7
 51
15.0
 72
     1
 11
133.0580323469369
 21
234.9880565944845
 31
0.0
100
AcDbText
 73
     2
  0
LINE
  5
C7BE7
330
C6443
100
AcDbEntity
  8
BEM1
100
AcDbLine
 10
129.8455669715708
 20
230.8180231809514
 30
0.0
 11
129.8455669715708
 21
239.8180231809514
 31
0.0
  0
LINE
  5
C7BE8
330
C6443
100
AcDbEntity
  8
05
100
AcDbLine
 10
171.3801283585333
 20
230.3180231809514
 30
0.0
 11
180.4256772084297
 21
230.3180231809514
 31
0.0
  0
LWPOLYLINE
  5
C7BE9
330
C6443
100
AcDbEntity
  8
035
100
AcDbPolyline
 90
        8
 70
     0
 43
0.0
 10
144.4256772084297
 20
221.4868412811234
 10
144.4256772084297
 20
219.3180231809514
 10
143.6256772084297
 20
219.3180231809514
 10
143.6256772084297
 20
221.4868412811234
 42
-0.1514149044328284
 10
143.9411855959681
 20
222.5048219550713
 42
0.309935537690411
 10
143.9411855959681
 20
225.6312244068315
 42
-0.1514149044328281
 10
143.6256772084297
 20
226.6492050807794
 10
143.6256772084297
 20
227.3180231809514
  0
LWPOLYLINE
  5
C7BEA
330
C6443
100
AcDbEntity
  8
035
100
AcDbPolyline
 90
        6
 70
     0
 43
0.0
 10
144.4256772084297
 20
219.3180231809514
 10
144.4256772084297
 20
221.4868412811234
 42
-0.1514149044328364
 10
144.6009596459511
 20
222.0523860999833
 42
0.3099355376904337
 10
144.600959645951
 20
226.0836602619198
 42
-0.1514149044328556
 10
144.4256772084297
 20
226.64920508078
 10
144.4256772084297
 20
227.3180231809514
  0
LWPOLYLINE
  5
C7BEB
330
C6443
100
AcDbEntity
  8
025
100
AcDbPolyline
 90
        2
 70
     0
 43
0.0
 10
143.6256772084298
 20
220.5580231809515
 10
144.4256772084297
 20
220.5580231809515
  0
LINE
  5
C7BEC
330
C6443
100
AcDbEntity
  8
BEM1
100
AcDbLine
 10
181.9377678998938
 20
227.3180231809514
 30
0.0
 11
193.9259213214213
 21
227.3180231809514
 31
0.0
  0
LWPOLYLINE
  5
C7BED
330
C6443
100
AcDbEntity
  8
035
100
AcDbPolyline
 90
        6
 70
     0
 43
0.0
 10
176.4256772084297
 20
219.3180231809514
 10
176.4256772084297
 20
221.4868412811234
 42
0.1514149044328364
 10
176.2503947709083
 20
222.0523860999833
 42
-0.3099355376904337
 10
176.2503947709085
 20
226.0836602619198
 42
0.1514149044328556
 10
176.4256772084297
 20
226.64920508078
 10
176.4256772084297
 20
227.3180231809514
  0
LWPOLYLINE
  5
C7BEE
330
C6443
100
AcDbEntity
  8
035
100
AcDbPolyline
 90
        8
 70
     0
 43
0.0
 10
176.4256772084297
 20
221.4868412811234
 10
176.4256772084297
 20
219.3180231809514
 10
177.2256772084297
 20
219.3180231809514
 10
177.2256772084297
 20
221.4868412811234
 42
0.1514149044328284
 10
176.9101688208911
 20
222.5048219550713
 42
-0.309935537690411
 10
176.9101688208911
 20
225.6312244068315
 42
0.1514149044328281
 10
177.2256772084297
 20
226.6492050807794
 10
177.2256772084297
 20
227.3180231809514
  0
LWPOLYLINE
  5
C7BEF
330
C6443
100
AcDbEntity
  8
025
100
AcDbPolyline
 90
        2
 70
     0
 43
0.0
 10
177.2256772084297
 20
220.5580231809515
 10
176.4256772084297
 20
220.5580231809515
  0
SOLID
  5
C7BF0
330
C6443
100
AcDbEntity
  8
BEM1
100
AcDbTrace
 10
192.8216639657992
 20
230.8180231809514
 30
0.0
 11
193.9883306324659
 21
230.8180231809514
 31
0.0
 12
193.4049972991324
 22
227.3180231809514
 32
0.0
 13
193.4049972991324
 23
227.3180231809514
 33
0.0
  0
SOLID
  5
C7BF1
330
C6443
100
AcDbEntity
  8
BEM1
100
AcDbTrace
 10
143.9256772084296
 20
279.4378700367865
 30
0.0
 11
143.9256772084296
 21
278.2712033701198
 31
0.0
 12
140.4256772084296
 22
278.8545367034532
 32
0.0
 13
140.4256772084296
 23
278.8545367034532
 33
0.0
  0
LINE
  5
C7BF2
330
C6443
100
AcDbEntity
  8
BEM1
100
AcDbLine
 10
101.7772556732511
 20
257.9180231809514
 30
0.0
 11
114.7852161231641
 21
257.9180231809514
 31
0.0
  0
LINE
  5
C7BF3
330
C6443
100
AcDbEntity
  8
BEM1
100
AcDbLine
 10
100.4631473975219
 20
253.5180231809513
 30
0.0
 11
100.4631473975219
 21
279.5572236415403
 31
0.0
  0
LINE
  5
C7BF4
330
C6443
100
AcDbEntity
  8
05
100
AcDbLine
 10
90.36314739752185
 20
243.3180231809514
 30
0.0
 11
94.86314739752186
 21
243.3180231809514
 31
0.0
  0
LINE
  5
C7BF5
330
C6443
100
AcDbEntity
  8
035
100
AcDbLine
 10
79.86314739752185
 20
255.7180231809492
 30
0.0
 11
90.36314739752185
 21
255.7180231809492
 31
0.0
  0
LINE
  5
C7BF6
330
C6443
100
AcDbEntity
  8
035
100
AcDbLine
 10
80.66314739752181
 20
243.3180231809515
 30
0.0
 11
80.66314739752181
 21
248.0194363558126
 31
0.0
  0
LINE
  5
C7BF7
330
C6443
100
AcDbEntity
  8
035
100
AcDbLine
 10
76.86314739752186
 20
243.3180231809515
 30
0.0
 11
76.86314739752186
 21
248.0194363558126
 31
0.0
  0
LINE
  5
C7BF8
330
C6443
100
AcDbEntity
  8
05
100
AcDbLine
 10
77.66314739752181
 20
243.3180231809514
 30
0.0
 11
79.86314739752185
 21
243.3180231809514
 31
0.0
  0
LINE
  5
C7BF9
330
C6443
100
AcDbEntity
  8
035
100
AcDbLine
 10
76.86314739752186
 20
248.0194363558126
 30
0.0
 11
77.66314739752181
 21
248.0194363558126
 31
0.0
  0
LINE
  5
C7BFA
330
C6443
100
AcDbEntity
  8
035
100
AcDbLine
 10
79.86314739752185
 20
248.0194363558126
 30
0.0
 11
80.66314739752181
 21
248.0194363558126
 31
0.0
  0
LINE
  5
C7BFB
330
C6443
100
AcDbEntity
  8
035
100
AcDbLine
 10
89.5631473975219
 20
243.3180231809515
 30
0.0
 11
89.56314739752178
 21
248.0194363558126
 31
0.0
  0
LINE
  5
C7BFC
330
C6443
100
AcDbEntity
  8
035
100
AcDbLine
 10
89.5631473975219
 20
248.0194363558126
 30
0.0
 11
90.36314739752185
 21
248.0194363558126
 31
0.0
  0
LINE
  5
C7BFD
330
C6443
100
AcDbEntity
  8
BEM1
100
AcDbLine
 10
96.13524951110822
 20
257.9180231809514
 30
0.0
 11
98.92466025435272
 21
257.9180231809514
 31
0.0
  0
SOLID
  5
C7BFE
330
C6443
100
AcDbEntity
  8
BEM1
100
AcDbTrace
 10
96.96314739752189
 20
279.4378700367865
 30
0.0
 11
96.96314739752189
 21
278.2712033701198
 31
0.0
 12
100.4631473975219
 22
278.8545367034532
 32
0.0
 13
100.4631473975219
 23
278.8545367034532
 33
0.0
  0
LINE
  5
C7BFF
330
C6443
100
AcDbEntity
  8
BEM1
100
AcDbLine
 10
140.4256772084296
 20
244.3180231809514
 30
0.0
 11
140.4256772084296
 21
279.5572236415403
 31
0.0
  0
TEXT
  5
C7C00
330
C6443
100
AcDbEntity
  8
BEM1
 62
     4
100
AcDbText
 10
112.0738714488957
 20
243.3410195229363
 30
0.0
 40
3.0
  1
[.610"]
 50
90.0
 41
0.7
 51
15.0
 72
     1
 11
110.5738714488957
 21
248.0660195229362
 31
0.0
100
AcDbText
 73
     2
  0
SOLID
  5
C7C01
330
C6443
100
AcDbEntity
  8
BEM1
100
AcDbTrace
 10
113.3426863006341
 20
254.4180231809514
 30
0.0
 11
114.5093529673007
 21
254.4180231809514
 31
0.0
 12
113.9260196339675
 22
257.9180231809514
 32
0.0
 13
113.9260196339675
 23
257.9180231809514
 33
0.0
  0
LINE
  5
C7C02
330
C6443
100
AcDbEntity
  8
BEM1
100
AcDbLine
 10
138.8139644459181
 20
243.3180231809514
 30
0.0
 11
129.2999707415245
 21
243.3180231809514
 31
0.0
  0
SOLID
  5
C7C03
330
C6443
100
AcDbEntity
  8
BEM1
100
AcDbTrace
 10
171.3016989112514
 20
270.4378700367865
 30
0.0
 11
171.3016989112514
 21
269.2712033701198
 31
0.0
 12
174.8016989112514
 22
269.8545367034532
 32
0.0
 13
174.8016989112514
 23
269.8545367034532
 33
0.0
  0
LINE
  5
C7C04
330
C6443
100
AcDbEntity
  8
BEM1
100
AcDbLine
 10
163.6371451130326
 20
260.5420014781298
 30
0.0
 11
173.8092190273306
 21
260.5420014781298
 31
0.0
  0
LINE
  5
C7C05
330
C6443
100
AcDbEntity
  8
BEM1
100
AcDbLine
 10
143.9256772084296
 20
278.8545367034532
 30
0.0
 11
176.9256772084297
 21
278.8545367034532
 31
0.0
  0
LINE
  5
C7C06
330
C6443
100
AcDbEntity
  8
MITTE
100
AcDbLine
 10
141.7256772084297
 20
243.3180231809514
 30
0.0
 11
179.1256772084298
 21
243.3180231809514
 31
0.0
  0
LINE
  5
C7C07
330
C6443
100
AcDbEntity
  8
BEM1
100
AcDbLine
 10
146.0496555056081
 20
270.5504530307447
 30
0.0
 11
146.0496555056081
 21
254.1144201019654
 31
0.0
  0
TEXT
  5
C7C08
330
C6443
100
AcDbEntity
  8
BEM1
 62
     3
100
AcDbText
 10
155.934010541763
 20
271.6045367034531
 30
0.0
 40
3.5
  1
SW15
 41
0.7
 51
15.0
 72
     1
 11
160.4256772084297
 21
273.3545367034531
 31
0.0
100
AcDbText
 73
     2
  0
LINE
  5
C7C09
330
C6443
100
AcDbEntity
  8
BEM1
100
AcDbLine
 10
149.5496555056081
 20
269.8545367034532
 30
0.0
 11
171.3016989112514
 21
269.8545367034532
 31
0.0
  0
TEXT
  5
C7C0A
330
C6443
100
AcDbEntity
  8
BEM1
 62
     3
100
AcDbText
 10
149.8658700313973
 20
280.6045367034532
 30
0.0
 40
3.5
  1
20.00
 41
0.7
 51
15.0
 72
     1
 11
154.1533700313973
 21
282.3545367034532
 31
0.0
100
AcDbText
 73
     2
  0
SOLID
  5
C7C0B
330
C6443
100
AcDbEntity
  8
BEM1
100
AcDbTrace
 10
149.5496555056081
 20
270.4378700367865
 30
0.0
 11
149.5496555056081
 21
269.2712033701198
 31
0.0
 12
146.0496555056081
 22
269.8545367034532
 32
0.0
 13
146.0496555056081
 23
269.8545367034532
 33
0.0
  0
TEXT
  5
C7C0C
330
C6443
100
AcDbEntity
  8
BEM1
 62
     4
100
AcDbText
 10
160.9729775227817
 20
280.5713665885772
 30
0.0
 40
3.0
  1
[.787"]
 41
0.7
 51
15.0
 72
     1
 11
166.2229775227818
 21
282.0713665885772
 31
0.0
100
AcDbText
 73
     2
  0
LINE
  5
C7C0D
330
C6443
100
AcDbEntity
  8
BEM1
100
AcDbLine
 10
174.8016989112514
 20
270.5504530307447
 30
0.0
 11
174.8016989112514
 21
253.7979318024631
 31
0.0
  0
LINE
  5
C7C0E
330
C6443
100
AcDbEntity
  8
BEM1
100
AcDbLine
 10
180.4256772084297
 20
244.3180231809514
 30
0.0
 11
180.4256772084297
 21
279.5572236415403
 31
0.0
  0
LINE
  5
C7C0F
330
C6443
100
AcDbEntity
  8
BEM1
100
AcDbLine
 10
181.7746964264662
 20
260.5420014781298
 30
0.0
 11
193.9259213214213
 21
260.5420014781298
 31
0.0
  0
TEXT
  5
C7C10
330
C6443
100
AcDbEntity
  8
BEM1
 62
     4
100
AcDbText
 10
191.5528491140608
 20
244.3434724462079
 30
0.0
 40
3.0
  1
[.650"]
 50
90.0
 41
0.7
 51
15.0
 72
     1
 11
190.0528491140608
 21
249.4184724462079
 31
0.0
100
AcDbText
 73
     2
  0
LINE
  5
C7C12
330
C6443
100
AcDbEntity
  8
BEM1
100
AcDbLine
 10
175.7912183648041
 20
260.5420014781298
 30
0.0
 11
179.322194087487
 21
260.5420014781298
 31
0.0
  0
SOLID
  5
C7C13
330
C6443
100
AcDbEntity
  8
BEM1
100
AcDbTrace
 10
192.8216639657992
 20
257.0420014781298
 30
0.0
 11
193.9883306324659
 21
257.0420014781298
 31
0.0
 12
193.4049972991324
 22
260.5420014781298
 32
0.0
 13
193.4049972991324
 23
260.5420014781298
 33
0.0
  0
SOLID
  5
C7C14
330
C6443
100
AcDbEntity
  8
BEM1
100
AcDbTrace
 10
176.9256772084297
 20
279.4378700367865
 30
0.0
 11
176.9256772084297
 21
278.2712033701198
 31
0.0
 12
180.4256772084297
 22
278.8545367034532
 32
0.0
 13
180.4256772084297
 23
278.8545367034532
 33
0.0
  0
LINE
  5
C877D
330
C6443
100
AcDbEntity
  8
035
100
AcDbLine
 10
67.16314739752181
 20
255.7180231809492
 30
0.0
 11
77.66314739752181
 21
255.7180231809492
 31
0.0
  0
LINE
  5
C877E
330
C6443
100
AcDbEntity
  8
035
100
AcDbLine
 10
67.96314739752188
 20
243.3180231809515
 30
0.0
 11
67.96314739752188
 21
248.0194363558126
 31
0.0
  0
LINE
  5
C877F
330
C6443
100
AcDbEntity
  8
035
100
AcDbLine
 10
67.16314739752181
 20
248.0194363558126
 30
0.0
 11
67.96314739752188
 21
248.0194363558126
 31
0.0
  0
LINE
  5
C8780
330
C6443
100
AcDbEntity
  8
035
100
AcDbLine
 10
76.86314739752186
 20
243.3180231809515
 30
0.0
 11
76.86314739752186
 21
248.0194363558126
 31
0.0
  0
LINE
  5
C8781
330
C6443
100
AcDbEntity
  8
035
100
AcDbLine
 10
76.86314739752186
 20
248.0194363558126
 30
0.0
 11
77.66314739752181
 21
248.0194363558126
 31
0.0
  0
CIRCLE
  5
C8782
330
C6443
100
AcDbEntity
  8
035
100
AcDbCircle
 10
72.41314739752192
 20
237.3180231809513
 30
0.0
 40
1.0
  0
LINE
  5
C8783
330
C6443
100
AcDbEntity
  8
025
 62
     5
100
AcDbLine
 10
73.52143092756239
 20
222.0197179542708
 30
0.0
 11
73.6894003907181
 21
222.0197179542708
 31
0.0
  0
ARC
  5
C8784
330
C6443
100
AcDbEntity
  8
035
100
AcDbCircle
 10
72.41314739752192
 20
220.6180231809515
 30
0.0
 40
1.299999999999997
100
AcDbArc
 50
180.0
 51
0.0
  0
LINE
  5
C8785
330
C6443
100
AcDbEntity
  8
035
100
AcDbLine
 10
71.11314739752185
 20
228.3180231809514
 30
0.0
 11
71.11314739752185
 21
220.5580231809514
 31
0.0
  0
LINE
  5
C8786
330
C6443
100
AcDbEntity
  8
025
 62
     5
100
AcDbLine
 10
71.28134239962901
 20
222.0197179542708
 30
0.0
 11
71.44668511108682
 21
222.0197179542708
 31
0.0
  0
LINE
  5
C8787
330
C6443
100
AcDbEntity
  8
025
 62
     5
100
AcDbLine
 10
73.00426100068091
 20
222.0197179542708
 30
0.0
 11
71.77869136564971
 21
222.0197179542708
 31
0.0
  0
LINE
  5
C8788
330
C6443
100
AcDbEntity
  8
035
100
AcDbLine
 10
69.46314739752188
 20
228.3180231809514
 30
0.0
 11
71.11314739752185
 21
228.3180231809514
 31
0.0
  0
LINE
  5
C8789
330
C6443
100
AcDbEntity
  8
025
 62
     5
100
AcDbLine
 10
71.93085292706666
 20
226.1163284076321
 30
0.0
 11
71.35649192628716
 21
226.1163284076321
 31
0.0
  0
LINE
  5
C878A
330
C6443
100
AcDbEntity
  8
025
 62
     5
100
AcDbLine
 10
73.4369842890153
 20
226.1163284076321
 30
0.0
 11
72.34905455324827
 21
226.1163284076321
 31
0.0
  0
LWPOLYLINE
  5
C878B
330
C6443
100
AcDbEntity
  8
035
100
AcDbPolyline
 90
        4
 70
     0
 43
0.0
 10
73.71314739752188
 20
220.5580231809514
 10
73.71314739752188
 20
228.3180231809514
 10
73.71314739752188
 20
228.3180231809514
 10
75.36314739752185
 20
228.3180231809514
  0
LWPOLYLINE
  5
C878C
330
C6443
100
AcDbEntity
  8
05
100
AcDbPolyline
 90
        2
 70
     0
 43
0.0
 10
71.11314739752185
 20
227.3180231809513
 10
61.01314739752183
 20
227.3180231809512
  0
LWPOLYLINE
  5
C878D
330
C6443
100
AcDbEntity
  8
05
100
AcDbPolyline
 90
        4
 70
     1
 43
0.0
 10
77.66314739752181
 20
195.3856816271342
 10
77.66314739752181
 20
161.3856816271341
 10
67.16314739752181
 20
161.3856816271341
 10
67.16314739752181
 20
195.3856816271343
  0
LINE
  5
C878E
330
C6443
100
AcDbEntity
  8
05
100
AcDbLine
 10
69.46314739752188
 20
196.9856816271343
 30
0.0
 11
75.36314739752185
 21
196.9856816271343
 31
0.0
  0
LINE
  5
C878F
330
C6443
100
AcDbEntity
  8
05
100
AcDbLine
 10
69.46314739752188
 20
198.3856816271343
 30
0.0
 11
62.66314739752181
 21
198.3856816271343
 31
0.0
  0
LINE
  5
C8790
330
C6443
100
AcDbEntity
  8
05
100
AcDbLine
 10
69.46314739752188
 20
196.9856816271343
 30
0.0
 11
69.46314739752188
 21
198.3856816271343
 31
0.0
  0
LINE
  5
C8791
330
C6443
100
AcDbEntity
  8
05
100
AcDbLine
 10
75.36314739752185
 20
196.9856816271343
 30
0.0
 11
75.36314739752185
 21
198.3856816271343
 31
0.0
  0
LINE
  5
C8792
330
C6443
100
AcDbEntity
  8
025
100
AcDbLine
 10
74.52606816225432
 20
171.5549341416972
 30
0.0
 11
68.13517976999708
 21
171.5549341416972
 31
0.0
  0
LINE
  5
C8793
330
C6443
100
AcDbEntity
  8
025
100
AcDbLine
 10
76.65925160378879
 20
164.5297896806703
 30
0.0
 11
69.27574700262198
 21
164.5297896806703
 31
0.0
  0
LINE
  5
C8794
330
C6443
100
AcDbEntity
  8
05
100
AcDbLine
 10
69.46314739752188
 20
161.3856816271341
 30
0.0
 11
69.46314739752188
 21
158.3856816271341
 31
0.0
  0
LWPOLYLINE
  5
C8795
330
C6443
100
AcDbEntity
  8
035
100
AcDbPolyline
 90
        4
 70
     0
 43
0.0
 10
67.16314739752181
 20
161.3856816271341
 10
67.16314739752181
 20
160.0077039210536
 10
67.96314739752188
 20
160.0077039210536
 10
67.96314739752188
 20
161.3856816271341
  0
LINE
  5
C8796
330
C6443
100
AcDbEntity
  8
05
100
AcDbLine
 10
69.46314739752188
 20
158.3856816271341
 30
0.0
 11
62.66314739752181
 21
158.3856816271341
 31
0.0
  0
LINE
  5
C8797
330
C6443
100
AcDbEntity
  8
025
100
AcDbLine
 10
68.78799143930326
 20
164.5297896806703
 30
0.0
 11
67.91583958595026
 21
164.5297896806703
 31
0.0
  0
LINE
  5
C8798
330
C6443
100
AcDbEntity
  8
05
100
AcDbLine
 10
75.36314739752185
 20
161.3856816271341
 30
0.0
 11
75.36314739752185
 21
158.3856816271341
 31
0.0
  0
LWPOLYLINE
  5
C8799
330
C6443
100
AcDbEntity
  8
035
100
AcDbPolyline
 90
        4
 70
     0
 43
0.0
 10
76.86314739752186
 20
161.3856816271341
 10
76.86314739752186
 20
160.0077039210536
 10
77.66314739752181
 20
160.0077039210536
 10
77.66314739752181
 20
161.3856816271341
  0
LINE
  5
C879A
330
C6443
100
AcDbEntity
  8
025
100
AcDbLine
 10
76.9799260529195
 20
171.5549341416972
 30
0.0
 11
75.26436724799589
 21
171.5549341416972
 31
0.0
  0
LWPOLYLINE
  5
C879B
330
C6443
100
AcDbEntity
  8
025
100
AcDbPolyline
 90
        4
 70
     0
 43
0.0
 10
74.68819176023339
 20
187.3578824845741
 42
0.184217657103692
 10
73.51251628135822
 20
184.8880261242596
 10
73.51251628135822
 20
175.090723726397
 42
0.1918553960062915
 10
74.63583263383487
 20
172.7648492604241
  0
LWPOLYLINE
  5
C879C
330
C6443
100
AcDbEntity
  8
025
100
AcDbPolyline
 90
        4
 70
     0
 43
0.0
 10
70.15200763143195
 20
172.7301337598083
 42
0.1957062860191981
 10
71.31377851368563
 20
175.090723726397
 10
71.31377851368563
 20
184.3540021038848
 42
0.1720024612105806
 10
70.1458114695157
 20
187.5581422396758
 42
0.1720024612105806
  0
ARC
  5
C879D
330
C6443
100
AcDbEntity
  8
035
100
AcDbCircle
 10
72.41314739752181
 20
188.215563308271
 30
0.0
 40
5.354941860465119
100
AcDbArc
 50
11.3617816359321
 51
168.6382183640678
  0
LINE
  5
C879E
330
C6443
100
AcDbEntity
  8
05
100
AcDbLine
 10
82.16314739752192
 20
198.3856816271343
 30
0.0
 11
75.36314739752185
 21
198.3856816271343
 31
0.0
  0
LINE
  5
C879F
330
C6443
100
AcDbEntity
  8
05
100
AcDbLine
 10
82.16314739752192
 20
158.3856816271341
 30
0.0
 11
75.36314739752185
 21
158.3856816271341
 31
0.0
  0
INSERT
  5
C87B0
330
C6443
100
AcDbEntity
  8
BEM1
100
AcDbBlockReference
  2
A$C694C5F03
 10
172.6267232852135
 20
246.6265838315825
 30
0.0
  0
INSERT
  5
C8902
330
C6443
100
AcDbEntity
  8
035
100
AcDbBlockReference
 66
     1
  2
ZKOPF-REAN
 10
204.999999977676
 20
4.999999860144839
 30
0.0
  0
ATTRIB
  5
C8903
330
C8902
100
AcDbEntity
  8
0
 62
     4
100
AcDbText
 10
189.8333333110093
 20
41.99999986014484
 30
0.0
 40
2.5
  1
Battlogg
  7
SCRIPTS
 72
     1
 11
196.499999977676
 21
41.99999986014484
 31
0.0
100
AcDbAttribute
  2
NAME
 70
     0
  0
ATTRIB
  5
C8904
330
C8902
100
AcDbEntity
  8
0
 62
     4
100
AcDbText
 10
175.3958333110093
 20
41.99999986014484
 30
0.0
 40
2.5
  1
04.04.02
 41
0.7
 51
15.0
 72
     1
 11
180.499999977676
 21
41.99999986014484
 31
0.0
100
AcDbAttribute
  2
DATE
 70
     0
  0
ATTRIB
  5
C8905
330
C8902
100
AcDbEntity
  8
0
 62
     4
100
AcDbText
 10
124.499999977676
 20
40.99999986014483
 30
0.0
 40
2.5
  1

 41
0.7
 51
15.0
 72
     1
 11
124.499999977676
 21
40.99999986014483
 31
0.0
100
AcDbAttribute
  2
WERKSTOFF
 70
     0
  0
ATTRIB
  5
C8906
330
C8902
100
AcDbEntity
  8
0
 62
     2
100
AcDbText
 10
100.1666666443426
 20
17.49999986014484
 30
0.0
 40
5.0
  1
NYS 216G
 41
0.7
 51
15.0
 72
     1
 11
112.999999977676
 21
17.49999986014484
 31
0.0
100
AcDbAttribute
  2
BENENNUNG
 70
     0
  0
ATTRIB
  5
C8907
330
C8902
100
AcDbEntity
  8
0
 62
     3
100
AcDbText
 10
97.58454337579735
 20
26.08219131067178
 30
0.0
 40
3.5
  1
1/4" Phone Jacks
 41
0.7
 51
15.0
 72
     1
 11
115.9595433757973
 21
26.08219131067178
 31
0.0
100
AcDbAttribute
  2
TEIL
 70
     0
  0
ATTRIB
  5
C8908
330
C8902
100
AcDbEntity
  8
0
 62
     3
100
AcDbText
 10
169.5456142284329
 20
6.976540876682634
 30
0.0
 40
3.5
  1
3102 ST 22 68
 41
0.7
 51
15.0
 72
     1
 11
184.4497808950996
 21
6.976540876682634
 31
0.0
100
AcDbAttribute
  2
NUMMER
 70
     0
  0
ATTRIB
  5
C8909
330
C8902
100
AcDbEntity
  8
0
 62
     2
100
AcDbText
 10
141.5173283401999
 20
39.65605609307937
 30
0.0
 40
5.0
  1
2:1
 41
0.7
 51
15.0
 72
     1
 11
144.4339950068665
 21
39.65605609307937
 31
0.0
100
AcDbAttribute
  2
MASS
 70
     0
  0
ATTRIB
  5
C890A
330
C8902
100
AcDbEntity
  8
0
 62
     3
100
AcDbText
 10
144.5192990316959
 20
33.21045039932014
 30
0.0
 40
3.5
  1

 41
0.7
 51
15.0
 72
     1
 11
144.5192990316959
 21
33.21045039932014
 31
0.0
100
AcDbAttribute
  2
MASS2
 70
     0
  0
ATTRIB
  5
C890B
330
C8902
100
AcDbEntity
  8
0
 62
     4
100
AcDbText
 10
123.999999977676
 20
33.99999986014484
 30
0.0
 40
2.5
  1

 41
0.7
 51
15.0
 72
     1
 11
123.999999977676
 21
33.99999986014484
 31
0.0
100
AcDbAttribute
  2
TEIL
 70
     0
  0
ATTRIB
  5
C890C
330
C8902
100
AcDbEntity
  8
0
 62
     3
100
AcDbText
 10
97.28854803711413
 20
64.00431860757428
 30
0.0
 40
3.5
  1

 41
0.7
 51
15.0
100
AcDbAttribute
  2
TOL
 70
     0
  0
ATTRIB
  5
C890D
330
C8902
100
AcDbEntity
  8
0
 62
     3
100
AcDbText
 10
97.28854803711413
 20
59.00431860757428
 30
0.0
 40
3.5
  1

 41
0.7
 51
15.0
100
AcDbAttribute
  2
RADIEN
 70
     0
  0
ATTRIB
  5
C890E
330
C8902
100
AcDbEntity
  8
0
 62
     3
100
AcDbText
 10
97.28854803711413
 20
54.00431860757428
 30
0.0
 40
3.5
  1

 41
0.7
 51
15.0
100
AcDbAttribute
  2
FACETTE
 70
     0
  0
ATTRIB
  5
C890F
330
C8902
100
AcDbEntity
  8
0
 62
     4
100
AcDbText
 10
7.813732719293341
 20
11.99999986014484
 30
0.0
 40
2.5
  1
A
 41
0.7
 51
15.0
100
AcDbAttribute
  2
INDEX1
 70
     0
  0
ATTRIB
  5
C8910
330
C8902
100
AcDbEntity
  8
0
 62
     4
100
AcDbText
 10
14.65125737412569
 20
11.99999986014484
 30
0.0
 40
2.5
  1
33.0 %%P0.5 (33.5)
 41
0.7
 51
15.0
100
AcDbAttribute
  2
A1
 70
     0
  0
ATTRIB
  5
C8911
330
C8902
100
AcDbEntity
  8
0
 62
     4
100
AcDbText
 10
47.65125737412569
 20
11.99999986014484
 30
0.0
 40
2.5
  1
14.06.07
 41
0.7
 51
15.0
100
AcDbAttribute
  2
DATUM1
 70
     0
  0
ATTRIB
  5
C8912
330
C8902
100
AcDbEntity
  8
0
 62
     4
100
AcDbText
 10
60.53500983960896
 20
11.99999986014484
 30
0.0
 40
2.5
  1
Batlog
 41
0.7
 51
15.0
100
AcDbAttribute
  2
NAME1
 70
     0
  0
ATTRIB
  5
C8913
330
C8902
100
AcDbEntity
  8
0
 62
     4
100
AcDbText
 10
7.813732719293341
 20
16.99999986014484
 30
0.0
 40
2.5
  1

 41
0.7
 51
15.0
100
AcDbAttribute
  2
INDEX2
 70
     0
  0
ATTRIB
  5
C8914
330
C8902
100
AcDbEntity
  8
0
 62
     4
100
AcDbText
 10
14.65125737412569
 20
16.99999986014484
 30
0.0
 40
2.5
  1

 41
0.7
 51
15.0
100
AcDbAttribute
  2
A2
 70
     0
  0
ATTRIB
  5
C8915
330
C8902
100
AcDbEntity
  8
0
 62
     4
100
AcDbText
 10
47.65125737412569
 20
16.99999986014484
 30
0.0
 40
2.5
  1

 41
0.7
 51
15.0
100
AcDbAttribute
  2
DATUM2
 70
     0
  0
ATTRIB
  5
C8916
330
C8902
100
AcDbEntity
  8
0
 62
     4
100
AcDbText
 10
60.53500983960896
 20
16.99999986014484
 30
0.0
 40
2.5
  1

 41
0.7
 51
15.0
100
AcDbAttribute
  2
NAME2
 70
     0
  0
ATTRIB
  5
C8917
330
C8902
100
AcDbEntity
  8
0
 62
     4
100
AcDbText
 10
7.813732719293341
 20
21.99999986014484
 30
0.0
 40
2.5
  1

 41
0.7
 51
15.0
100
AcDbAttribute
  2
INDEX3
 70
     0
  0
ATTRIB
  5
C8918
330
C8902
100
AcDbEntity
  8
0
 62
     4
100
AcDbText
 10
14.65125737412569
 20
21.99999986014484
 30
0.0
 40
2.5
  1

 41
0.7
 51
15.0
100
AcDbAttribute
  2
A3
 70
     0
  0
ATTRIB
  5
C8919
330
C8902
100
AcDbEntity
  8
0
 62
     4
100
AcDbText
 10
47.65125737412569
 20
21.99999986014484
 30
0.0
 40
2.5
  1

 41
0.7
 51
15.0
100
AcDbAttribute
  2
DATUM3
 70
     0
  0
ATTRIB
  5
C891A
330
C8902
100
AcDbEntity
  8
0
 62
     4
100
AcDbText
 10
60.53500983960896
 20
21.99999986014484
 30
0.0
 40
2.5
  1

 41
0.7
 51
15.0
100
AcDbAttribute
  2
NAME3
 70
     0
  0
ATTRIB
  5
C891B
330
C8902
100
AcDbEntity
  8
0
 62
     4
100
AcDbText
 10
7.813732719293341
 20
26.99999986014484
 30
0.0
 40
2.5
  1

 41
0.7
 51
15.0
100
AcDbAttribute
  2
INDEX4
 70
     0
  0
ATTRIB
  5
C891C
330
C8902
100
AcDbEntity
  8
0
 62
     4
100
AcDbText
 10
14.65125737412569
 20
26.99999986014484
 30
0.0
 40
2.5
  1

 41
0.7
 51
15.0
100
AcDbAttribute
  2
A4
 70
     0
  0
ATTRIB
  5
C891D
330
C8902
100
AcDbEntity
  8
0
 62
     4
100
AcDbText
 10
47.65125737412569
 20
26.99999986014484
 30
0.0
 40
2.5
  1

 41
0.7
 51
15.0
100
AcDbAttribute
  2
DATUM4
 70
     0
  0
ATTRIB
  5
C891E
330
C8902
100
AcDbEntity
  8
0
 62
     4
100
AcDbText
 10
60.53500983960896
 20
26.99999986014484
 30
0.0
 40
2.5
  1

 41
0.7
 51
15.0
100
AcDbAttribute
  2
NAME4
 70
     0
  0
ATTRIB
  5
C891F
330
C8902
100
AcDbEntity
  8
0
 62
     4
100
AcDbText
 10
7.813732719293341
 20
31.99999986014484
 30
0.0
 40
2.5
  1

 41
0.7
 51
15.0
100
AcDbAttribute
  2
INDEX5
 70
     0
  0
ATTRIB
  5
C8920
330
C8902
100
AcDbEntity
  8
0
 62
     4
100
AcDbText
 10
14.65125737412569
 20
31.99999986014484
 30
0.0
 40
2.5
  1

 41
0.7
 51
15.0
100
AcDbAttribute
  2
A5
 70
     0
  0
ATTRIB
  5
C8921
330
C8902
100
AcDbEntity
  8
0
 62
     4
100
AcDbText
 10
47.65125737412569
 20
31.99999986014484
 30
0.0
 40
2.5
  1

 41
0.7
 51
15.0
100
AcDbAttribute
  2
DATUM5
 70
     0
  0
ATTRIB
  5
C8922
330
C8902
100
AcDbEntity
  8
0
 62
     4
100
AcDbText
 10
60.53500983960896
 20
31.99999986014484
 30
0.0
 40
2.5
  1

 41
0.7
 51
15.0
100
AcDbAttribute
  2
NAME5
 70
     0
  0
ATTRIB
  5
C8923
330
C8902
100
AcDbEntity
  8
0
 62
     4
100
AcDbText
 10
7.813732719293341
 20
36.99999986014484
 30
0.0
 40
2.5
  1

 41
0.7
 51
15.0
100
AcDbAttribute
  2
INDEX6
 70
     0
  0
ATTRIB
  5
C8924
330
C8902
100
AcDbEntity
  8
0
 62
     4
100
AcDbText
 10
14.65125737412569
 20
36.99999986014484
 30
0.0
 40
2.5
  1

 41
0.7
 51
15.0
100
AcDbAttribute
  2
A6
 70
     0
  0
ATTRIB
  5
C8925
330
C8902
100
AcDbEntity
  8
0
 62
     4
100
AcDbText
 10
47.65125737412569
 20
36.99999986014484
 30
0.0
 40
2.5
  1

 41
0.7
 51
15.0
100
AcDbAttribute
  2
DATUM6
 70
     0
  0
ATTRIB
  5
C8926
330
C8902
100
AcDbEntity
  8
0
 62
     4
100
AcDbText
 10
60.53500983960896
 20
36.99999986014484
 30
0.0
 40
2.5
  1

 41
0.7
 51
15.0
100
AcDbAttribute
  2
NAME6
 70
     0
  0
ATTRIB
  5
C8927
330
C8902
100
AcDbEntity
  8
0
 62
     4
100
AcDbText
 10
7.813732719293341
 20
41.99999986014484
 30
0.0
 40
2.5
  1

 41
0.7
 51
15.0
100
AcDbAttribute
  2
INDEX7
 70
     0
  0
ATTRIB
  5
C8928
330
C8902
100
AcDbEntity
  8
0
 62
     4
100
AcDbText
 10
14.65125737412569
 20
41.99999986014484
 30
0.0
 40
2.5
  1

 41
0.7
 51
15.0
100
AcDbAttribute
  2
A7
 70
     0
  0
ATTRIB
  5
C8929
330
C8902
100
AcDbEntity
  8
0
 62
     4
100
AcDbText
 10
47.65125737412569
 20
41.99999986014484
 30
0.0
 40
2.5
  1

 41
0.7
 51
15.0
100
AcDbAttribute
  2
DATUM7
 70
     0
  0
ATTRIB
  5
C892A
330
C8902
100
AcDbEntity
  8
0
 62
     4
100
AcDbText
 10
60.53500983960896
 20
41.99999986014484
 30
0.0
 40
2.5
  1

 41
0.7
 51
15.0
100
AcDbAttribute
  2
NAME7
 70
     0
  0
ATTRIB
  5
C892B
330
C8902
100
AcDbEntity
  8
0
 62
     4
100
AcDbText
 10
7.813732719293341
 20
46.99999986014484
 30
0.0
 40
2.5
  1

 41
0.7
 51
15.0
100
AcDbAttribute
  2
INDEX8
 70
     0
  0
ATTRIB
  5
C892C
330
C8902
100
AcDbEntity
  8
0
 62
     4
100
AcDbText
 10
14.65125737412569
 20
46.99999986014484
 30
0.0
 40
2.5
  1

 41
0.7
 51
15.0
100
AcDbAttribute
  2
A8
 70
     0
  0
ATTRIB
  5
C892D
330
C8902
100
AcDbEntity
  8
0
 62
     4
100
AcDbText
 10
47.65125737412569
 20
46.99999986014484
 30
0.0
 40
2.5
  1

 41
0.7
 51
15.0
100
AcDbAttribute
  2
DATUM8
 70
     0
  0
ATTRIB
  5
C892E
330
C8902
100
AcDbEntity
  8
0
 62
     4
100
AcDbText
 10
60.53500983960896
 20
46.99999986014484
 30
0.0
 40
2.5
  1

 41
0.7
 51
15.0
100
AcDbAttribute
  2
NAME8
 70
     0
  0
SEQEND
  5
C892F
330
C8902
100
AcDbEntity
  8
035
  0
TEXT
  5
C8949
330
C6443
100
AcDbEntity
  8
BEM1
 62
     3
100
AcDbText
 10
53.62844177552818
 20
280.1132300440067
 30
0.0
 40
3.5
  1
33.00
 41
0.7
 51
15.0
 72
     1
 11
58.12010844219485
 21
281.8632300440068
 31
0.0
100
AcDbText
 73
     2
  0
TEXT
  5
C894A
330
C6443
100
AcDbEntity
  8
BEM1
 62
     4
100
AcDbText
 10
64.64522388940093
 20
280.1800599291308
 30
0.0
 40
3.0
  1
[1.300"]
 41
0.7
 51
15.0
 72
     1
 11
70.24522388940091
 21
281.6800599291308
 31
0.0
100
AcDbText
 73
     2
  0
TEXT
  5
C894B
330
C6443
100
AcDbEntity
  8
BEM1
 62
     4
100
AcDbText
 10
77.62718149725319
 20
280.4300599291309
 30
0.0
 40
2.5
  1
%%P0.5
 41
0.7
 51
15.0
 72
     1
 11
80.10634816391986
 21
281.6800599291308
 31
0.0
100
AcDbText
 73
     2
  0
ENDSEC
  0
SECTION
  2
OBJECTS
  0
DICTIONARY
  5
C6438
330
0
100
AcDbDictionary
281
     1
  3
ACAD_COLOR
350
C8937
  3
ACAD_GROUP
350
C6439
  3
ACAD_LAYOUT
350
C893A
  3
ACAD_MATERIAL
350
C8936
  3
ACAD_MLINESTYLE
350
C6446
  3
ACAD_PLOTSETTINGS
350
C893B
  3
ACAD_PLOTSTYLENAME
350
C8934
  3
ACAD_TABLESTYLE
350
C8938
  3
ACDBVARIABLEDICTIONARY
350
C694F
  0
DICTIONARY
  5
C8937
102
{ACAD_REACTORS
330
C6438
102
}
330
C6438
100
AcDbDictionary
281
     1
  0
DICTIONARY
  5
C6439
102
{ACAD_REACTORS
330
C6438
102
}
330
C6438
100
AcDbDictionary
281
     1
  0
DICTIONARY
  5
C893A
102
{ACAD_REACTORS
330
C6438
102
}
330
C6438
100
AcDbDictionary
281
     1
  3
Layout1
350
C893D
  3
Model
350
C893C
  0
DICTIONARY
  5
C8936
102
{ACAD_REACTORS
330
C6438
102
}
330
C6438
100
AcDbDictionary
281
     1
  0
DICTIONARY
  5
C6446
102
{ACAD_REACTORS
330
C6438
102
}
330
C6438
100
AcDbDictionary
281
     1
  3
STANDARD
350
C6447
  0
DICTIONARY
  5
C893B
102
{ACAD_REACTORS
330
C6438
102
}
330
C6438
100
AcDbDictionary
281
     1
  0
ACDBDICTIONARYWDFLT
  5
C8934
102
{ACAD_REACTORS
330
C6438
102
}
330
C6438
100
AcDbDictionary
281
     1
  3
Normal
350
C8935
100
AcDbDictionaryWithDefault
340
C8935
  0
DICTIONARY
  5
C8938
102
{ACAD_REACTORS
330
C6438
102
}
330
C6438
100
AcDbDictionary
281
     1
  3
Standard
350
C8939
  0
DICTIONARY
  5
C694F
102
{ACAD_REACTORS
330
C6438
102
}
330
C6438
100
AcDbDictionary
281
     1
  3
CTABLESTYLE
350
C894D
  3
SORTENTS
350
C6950
  0
LAYOUT
  5
C893D
102
{ACAD_REACTORS
330
C893A
102
}
330
C893A
100
AcDbPlotSettings
  1

  2
\\server2\MP1125PS_Vertrieb
  4

  6

 40
0.0
 41
0.0
 42
0.0
 43
0.0
 44
0.0
 45
0.0
 46
0.0
 47
0.0
 48
0.0
 49
0.0
140
0.0
141
0.0
142
1.0
143
1.0
 70
   688
 72
     0
 73
     0
 74
     5
  7

 75
    16
147
1.0
 76
     0
 77
     2
 78
   300
148
0.0
149
0.0
100
AcDbLayout
  1
Layout1
 70
     0
 71
     1
 10
0.0
 20
0.0
 11
12.0
 21
9.0
 12
0.0
 22
0.0
 32
0.0
 14
1.000000000000000E+20
 24
1.000000000000000E+20
 34
1.000000000000000E+20
 15
-1.000000000000000E+20
 25
-1.000000000000000E+20
 35
-1.000000000000000E+20
146
0.0
 13
0.0
 23
0.0
 33
0.0
 16
1.0
 26
0.0
 36
0.0
 17
0.0
 27
1.0
 37
0.0
 76
     0
330
C6440
  0
LAYOUT
  5
C893C
102
{ACAD_REACTORS
330
C893A
102
}
330
C893A
100
AcDbPlotSettings
  1

  2
\\server2\MP1125PS_Vertrieb
  4

  6

 40
0.0
 41
0.0
 42
0.0
 43
0.0
 44
0.0
 45
0.0
 46
0.0
 47
0.0
 48
0.0
 49
0.0
140
0.0
141
0.0
142
1.0
143
1.0
 70
  1712
 72
     0
 73
     0
 74
     0
  7

 75
     0
147
1.0
 76
     0
 77
     2
 78
   300
148
0.0
149
0.0
100
AcDbLayout
  1
Model
 70
     1
 71
     0
 10
0.0
 20
0.0
 11
12.0
 21
9.0
 12
0.0
 22
0.0
 32
0.0
 14
0.0
 24
0.0
 34
0.0
 15
0.0
 25
0.0
 35
0.0
146
0.0
 13
0.0
 23
0.0
 33
0.0
 16
1.0
 26
0.0
 36
0.0
 17
0.0
 27
1.0
 37
0.0
 76
     0
330
C6443
  0
MLINESTYLE
  5
C6447
102
{ACAD_REACTORS
330
C6446
102
}
330
C6446
100
AcDbMlineStyle
  2
STANDARD
 70
     0
  3

 62
   256
 51
90.0
 52
90.0
 71
     2
 49
0.5
 62
   256
  6
BYLAYER
 49
-0.5
 62
   256
  6
BYLAYER
  0
ACDBPLACEHOLDER
  5
C8935
102
{ACAD_REACTORS
330
C8934
102
}
330
C8934
  0
TABLESTYLE
  5
C8939
102
{ACAD_REACTORS
330
C8938
102
}
330
C8938
100
AcDbTableStyle
  3
Standard
 70
     0
 71
     0
 40
0.06
 41
0.06
280
     0
281
     0
  7
STANDARD
140
0.18
170
     2
 62
     0
 63
     7
283
     0
274
    -2
284
     1
 64
     0
275
    -2
285
     1
 65
     0
276
    -2
286
     1
 66
     0
277
    -2
287
     1
 67
     0
278
    -2
288
     1
 68
     0
279
    -2
289
     1
 69
     0
  7
STANDARD
140
0.25
170
     5
 62
     0
 63
     7
283
     0
274
    -2
284
     1
 64
     0
275
    -2
285
     1
 65
     0
276
    -2
286
     1
 66
     0
277
    -2
287
     1
 67
     0
278
    -2
288
     1
 68
     0
279
    -2
289
     1
 69
     0
  7
STANDARD
140
0.18
170
     5
 62
     0
 63
     7
283
     0
274
    -2
284
     1
 64
     0
275
    -2
285
     1
 65
     0
276
    -2
286
     1
 66
     0
277
    -2
287
     1
 67
     0
278
    -2
288
     1
 68
     0
279
    -2
289
     1
 69
     0
  0
DICTIONARYVAR
  5
C894D
102
{ACAD_REACTORS
330
C694F
102
}
330
C694F
100
DictionaryVariables
280
     0
  1
STANDARD
  0
DICTIONARYVAR
  5
C6950
102
{ACAD_REACTORS
330
C694F
102
}
330
C694F
100
DictionaryVariables
280
     0
  1
96
  0
ENDSEC
  0
EOF
